Roupa Nova

A Lenda (solo)

Roupa Nova

tabs Advanced advanced

by  KAROLLMOURE

save to print version add songbook text version e-mail correct tuner
chordsukulelecavacokeyboardtabbassdrumsharmonicaflute Guitar Pro
close

there isn't a video lesson for this song

chords

A Lenda (solo)

	  		Essa é a transcrição do solo executado no violão por Kiko 
na música A Lenda nos shows ao vivo da turnê RoupAcústico.  
A versão do CD e DVD RoupAcústico é um pouco mais  
simplificada. 
 
 
e|--------------------------------------------------------| 
B|-1-6-8-8h9-8--\6-6~/-----4h6p4--------------------------| 
G|--------------------------------6-5-3-5/6-5-3---1h3-3/5-| 
D|--------------------------------------------------------| 
A|--------------------------------------------------------| 
E|--------------------------------------------------------| 
 
 
E|---------------------------------------6----------------| 
B|-4-----------------------------4-6-6/8----8-6h8p6-5~~\--| 
G|---5/3--1---3/5-1-------1-3/5---------------------------| 
D|----------3---------------------------------------------| 
A|--------------------------------------------------------| 
E|--------------------------------------------------------| 
 
 
Por: Karoll Moure 
[email protected] 

		  

auto scroll beats size up size down change color hide chords drawings
tab show chords e-chords YouTube Clip e-chords hide all tabs e-chords go to top tab

share