Kaiser Chiefs

Oh My God (solo)

Kaiser Chiefs

tabs

by  SHERVIN14

save to print version add songbook text version e-mail correct tuner
chordsukulelecavacokeyboardtabbassdrumsharmonicaflute Guitar Pro
close

there isn't a video lesson for this song

chords

Oh My God (solo)

	  		E|-1-----1------00-11--------- 
B|---1-3---1-33--------------- 
G|---------------------------- 
D|---------------------------- 
A|---------------------------- 
E|---------------------------- 
 
E|-1-----1------00-11-3------- 
B|---1-3---1-33--------------- 
G|---------------------------- 
D|---------------------------- 
A|---------------------------- 
E|---------------------------- 
 
 
E|-1-----1------00-11--------- 
B|---1-3---1-33--------------- 
G|---------------------------- 
D|---------------------------- 
A|---------------------------- 
E|---------------------------- 
 
 
E|-1-----1------00-11-33-44-55-66-77-88-99-1010- 
B|---1-3---1-33------------------------------ 
G|------------------------------------------- 
D|------------------------------------------- 
A|------------------------------------------- 
E|------------------------------------------- 
 
This last one goes on for another octave but I  
couldn't put it on the page 'cause it wouldn't 
fit. It's real easy and fun to play too. Enjoy,  
Shervin. 
 

		  

auto scroll beats size up size down change color hide chords drawings
tab show chords e-chords YouTube Clip e-chords hide all tabs e-chords go to top tab

share