Journey

Any Way You Want It

Journey

tabs Easy easy

save to print version add songbook text version e-mail correct tuner
chordsukulelecavacokeyboardtabbassdrumsharmonicaflute Guitar Pro
close

there isn't a video lesson for this song

chords

Any Way You Want It

Year: 1988 - Album: Greatest Hits

(Steve Perry/Neal Schon)

	  		Journey f***ing kicks a**. Pimp song. The whole song is the same pattern except for the solo,
and since there is a solo you can figure it out for yourself.  
 
Intro 
e	---------------------------------- 
B	---------------------------------- 
G	---------------------------------- 
D	--------------------0-2-0--------- 
A	3-2-3-2-3-2----3----------3-2-0--- 
E	-------------3-------------------3 
 
Verse 
 
e	3----3---x----x---x---x---------------------- 
B	3----3---x----x---x---x---------------------- 
G	0----0---2----2---0---0---------------------- 
D	0----0---0----0---2---2---------------------- 
A	2----2---0----0---2---2---3-2-3-2-3-2-0------ 
E	3----3---2----2---0---0---------------------3 
 
Chorus 
 
e	3----3---x----x---x---x---------------------- 
B	3----3---x----x---x---x---------------------- 
G	0----0---2----2---0---0---------------------- 
D	0----0---0----0---2---2---------------------- 
A	2----2---0----0---2---2---3-2-3-2-3-2-0------ 
E	3----3---2----2---0---0---------------------3 
 
e	3----3---x----x---x---x------------------------------------- 
B	3----3---x----x---x---x------------------------------------- 
G	0----0---2----2---0---0------------------------------------- 
D	0----0---0----0---2---2-----------------------0-2-0--------- 
A	2----2---0----0---2---2---3-2-3-2-3-2----3----------3-2-0--- 
E	3----3---2----2---0---0----------------3-------------------3 
 
Solo 
 
e	--O--N---------------------------------- 
B	-------------Y--O--U--R----------------- 
G	---------------------------------------- 
D	----------------------------O--W--N----- 
A	---------------------------------------- 
E	---------------------------------------- 
 
Tabbed by bUbBa and StUnHaM Thank You?.journey is nice 
 

		  

See also:

tabs Jimi Hendrix - Manic Depression tabs Creedence Clearwater Revival - Have You Ever Seen The Rain tabs Creedence Clearwater Revival - Green River tabs Journey - Do Stop Believing tabs Jimi Hendrix - Hey Joe (Live) tabs Creedence Clearwater Revival - Bad Moon Rising Drop D
e-chords

Other versions:

tabs Journey - Any Way You Want It tabs Kiss - Any Way You Want It tabs Journey - Any Way You Want It (ver. 2)
auto scroll beats size up size down change color hide chords drawings
tab show chords e-chords YouTube Clip e-chords hide all tabs e-chords go to top tab

share