John Williams

Irinas Theme

John Williams

tabs

by  CARLLUZ

save to print version add songbook text version e-mail correct tuner
chordsukulelecavacokeyboardtabbassdrumsharmonicaflute Guitar Pro
close

there isn't a video lesson for this song

chords

Irinas Theme

	  		E|---------------------------------------------------------------------------------------------------- 
B|-----------------------------------------------------------------------------11----11----10----7---- 
G|----------------------------10----9----8------------------------------------------------------------ 
D|----4----7----8----11-----------------------10-------4----7----8----11------------------------------ 
A|---------------------------------------------------------------------------------------------------- 
E|---------------------------------------------------------------------------------------------------- 


E|----------------------------7----7----6----3----------------------------- 
B|------------------------------------------------------------------------- 
G|--------------------------------------------------------10----9---------- 
D|----4----7----8----11------------------------------7---------------10---- 
A|------------------------------------------------------------------------- 
E|------------------------------------------------------------------------- 
		  

See also:

tabs Jessica Simpson - With You tabs Tenacious D - Kickapoo tabs Prince - Purple Rain (Intro) tabs Pavement - Spit on a stranger tabs Soundtracks - The Good The Bad And The Ugly Theme tabs Soundtracks - Star Wars - Darth Vader Theme
e-chords

Other versions:

tabs John Williams - Irinas Theme
auto scroll beats size up size down change color hide chords drawings
tab show chords e-chords YouTube Clip e-chords hide all tabs e-chords go to top tab

share