John Williams

home > John Williams

Cantina Band Tab

John Williams

Difficulty: EasyEasy

by jessgomes

tuner correct add songbook print version text version save to e-mail
chordsukulelecavacokeyboardtabbassdrumsharmonicsflute Guitar Pro
chords

Cantina Band

  		
Riff 1: 
E|------10----10----10-------------------------------------------------------------------- 
B|---10---10-----10---10--9h10--9h10p9--8---7h8p7---6------------------------------------- 
G|-----------------------------------------------------7---------------------------------- 
D|---------------------------------------------------------------------------------------- 
A|---------------------------------------------------------------------------------------- 
E|---------------------------------------------------------------------------------------- 

E|------10----10----10--------------------8p6--------------------------------------------- 
B|---10---10-----10---10--9h10--8-8--7h8-------10--8-------------------------------------- 
G|---------------------------------------------------------------------------------------- 
D|---------------------------------------------------------------------------------------- 
A|---------------------------------------------------------------------------------------- 
E|---------------------------------------------------------------------------------------- 

E|------10----10----10-----------8-8-------------------------/5----/8----/11-10----------- 
B|---10---10-----10----10--9h10-------10p8----------------/6--------------------9h10------ 
G|--------------------------------------------10--7----/7-----------------------------10-- 
D|---------------------------------------------------------------------------------------- 
A|---------------------------------------------------------------------------------------- 
E|---------------------------------------------------------------------------------------- 

Riff 2 — 0:19: 
E|--17-----17----17-----17----17------16h17----------------------------------------------- 
B|-----18-----------18------------18-----------/18----15---------------------------------- 
G|---------------------------------------------------------------------------------------- 
D|---------------------------------------------------------------------------------------- 
A|---------------------------------------------------------------------------------------- 
E|---------------------------------------------------------------------------------------- 

E|--17-----17----17-----17----17------16h17----------------------------------------------- 
B|-----18-----------18------------18-----------/20---------------------------------------- 
G|----------------------------------------------------17---------------------------------- 
D|---------------------------------------------------------------------------------------- 
A|---------------------------------------------------------------------------------------- 
E|---------------------------------------------------------------------------------------- 

E|--17-----17----17-----17----17------16h17----------------------------------------------- 
B|-----18-----------18------------18-----------/18----15---------------------------------- 
G|---------------------------------------------------------------------------------------- 
D|---------------------------------------------------------------------------------------- 
A|---------------------------------------------------------------------------------------- 
E|---------------------------------------------------------------------------------------- 

Riff 3: 
E|--------------------4h5-------------6-10------------------------------------------------ 
B|---------6-------6--------3-------6-------9h10------------------------------------------ 
G|------7-------7-----------------7---------------10-------------------------------------- 
D|---8--------9--------------------------------------------------------------------------- 
A|---------------------------------------------------------------------------------------- 
E|---------------------------------------------------------------------------------------- 

Ponte — 1:30 mark: 
E|-------12----15--15--15--15--12------13----13--13--15---17------------------------------ 
B|---13----------------------------13----------------------------------------------------- 
G|---------------------------------------------------------------------------------------- 
D|---------------------------------------------------------------------------------------- 
A|---------------------------------------------------------------------------------------- 
E|---------------------------------------------------------------------------------------- 

E|----12--12--15--12-----12------12---15--13---13--13--15---17---------------------------- 
B|-------------------13------13----------------------------------------------------------- 
G|---------------------------------------------------------------------------------------- 
D|---------------------------------------------------------------------------------------- 
A|---------------------------------------------------------------------------------------- 
E|---------------------------------------------------------------------------------------- 

E|----18--18--21--18--20--18--18--20--18-----------------22------------------------------- 
B|----------------------------------------18--18--18--22---------------------------------- 
G|---------------------------------------------------------------------------------------- 
D|---------------------------------------------------------------------------------------- 
A|---------------------------------------------------------------------------------------- 
E|---------------------------------------------------------------------------------------- 

E|------10--15-15---15-12-12--12------13-13--13-13-13--13-13-13--13-12-------------------- 
B|--11----------------------------13----------------------------------15------------------ 
G|---------------------------------------------------------------------------------------- 
D|---------------------------------------------------------------------------------------- 
A|---------------------------------------------------------------------------------------- 
E|---------------------------------------------------------------------------------------- 
	  

Search Paypal
auto scroll beats size up size down change color hide chords drawings
tab show chords e-chords YouTube Clip e-chords hide all tabs e-chords go to top tab