John Williams

Leaving Hogwarts

John Williams

tabs

by  VSWORLD

save to print version add songbook text version e-mail correct tuner
chordsukulelecavacokeyboardtabbassdrumsharmonicaflute Guitar Pro
close

there isn't a video lesson for this song

chords

Leaving Hogwarts

	  		

(0:00-0:17) 
e|-----------------------| 
B|-----------------------| 
G|---2-4-------4-6-------| 
D|-2-----4-6-4-----6-----| 
A|-------------------4-5-| 
E|-----------------------| 

(0:18-0:33) 
e|-5-7-9-9-7-5-4-5-7-5-4-2-2-0-4-2---| 
B|---------------------------------2-| 
G|-----------------------------------| 
D|-----------------------------------| 
A|-----------------------------------| 
E|-----------------------------------| 

(0:34-0:47) 
e|-5-7-9-9-7-5-4-5-7-5-4-2-14-12-14----| 
B|----------------------------------13-| 
G|-------------------------------------| 
D|-------------------------------------| 
A|-------------------------------------| 
E|-------------------------------------| 

(0:48-1:01) 
e|---5-4-7-9-----12-10-14-16-17-19-21-22-24-| 
B|-7---------7-9----------------------------| 
G|------------------------------------------| 
D|------------------------------------------| 
A|------------------------------------------| 
E|------------------------------------------| 

(1:01-1:20) 
e|--------9-7---------------------------9-12---10----| 
B|-7-10-9-----9-7-10-9---9-----7-10-9-7------8-------| 
G|---------------------9---6-6--------------------10-| 
D|---------------------------------------------------| 
A|---------------------------------------------------| 
E|---------------------------------------------------| 

(1:21-1:29) Arpeggiated stuff that I won't tab 

(1:30-1:44) 
e|-----------------------------------| 
B|---------------------------7-5-7-9-| 
G|-----------------------------------| 
D|-7-9-11-11-9-7-6-7-9-7-6-4---------| 
A|-----------------------------------| 
E|-----------------------------------| 

(1:45-1:51) Orchestral stuff that is too high for guitar 

(1:52-2:17) 
e|-5-7-9-9-7-5-4-5-7-----------------4-2-------| 
B|-------------------2-0-----2-5-4-2-----4-0h2-| 
G|-----------------------2-2-------------------| 
D|---------------------------------------------| 
A|---------------------------------------------| 
E|---------------------------------------------| 

 
		  

See also:

tabs Jessica Simpson - With You tabs Tenacious D - Kickapoo tabs Prince - Purple Rain (Intro) tabs Pavement - Spit on a stranger tabs Soundtracks - The Good The Bad And The Ugly Theme tabs Soundtracks - Star Wars - Darth Vader Theme
e-chords

Other versions:

tabs John Williams - Leaving Hogwarts
auto scroll beats size up size down change color hide chords drawings
tab show chords e-chords YouTube Clip e-chords hide all tabs e-chords go to top tab

share