John Williams

Harry Potter Theme

John Williams

tabs Beginner beginner

by  PDIANESE

save to print version add songbook text version e-mail correct tuner
chordsukulelecavacokeyboardtabbassdrumsharmonicaflute Guitar Pro
close

there isn't a video lesson for this song

chords

Harry Potter Theme

	  		e|---0-3-2-0-7-5-2-0-3-2---1---------| 
B|-0---------------------3---0-------| 
G|-----------------------------------| 
D|-----------------------------------| 
A|-----------------------------------| 
E|-----------------------------------| 


e|---0-3-2-0-7-10-9-8-4-8-7-6---3-0--| 
B|-0--------------------------0------| 
G|-----------------------------------| 
D|-----------------------------------| 
A|-----------------------------------| 
E|-----------------------------------| 


e|--3-7-3-7-3-8-7-6-2-3-7-6-------7--| 
B|-----------------------------0-----| 
G|--------------------------3--------| 
D|-----------------------------------| 
A|-----------------------------------| 
E|-----------------------------------| 


e|--3-7-3-7-3-10-9-8-4-8-7-6---3-0---| 
B|---------------------------0-------| 
G|-----------------------------------| 
D|-----------------------------------| 
A|-----------------------------------| 
E|-----------------------------------| 
		  

See also:

tabs Jessica Simpson - With You tabs Tenacious D - Kickapoo tabs Prince - Purple Rain (Intro) tabs Pavement - Spit on a stranger tabs Soundtracks - The Good The Bad And The Ugly Theme tabs Soundtracks - Star Wars - Darth Vader Theme
e-chords

Other versions:

tabs Temas de Filmes - Harry Potter (Theme Song) tabs Soundtracks - Harry Potter - Theme tabs Jhon Williams - Harry Potter theme tabs Temas de Filmes - Harry Potter Theme tabs John Williams - Harry Potter Theme tabs Harry Potter - Harry Potter Theme
auto scroll beats size up size down change color hide chords drawings
tab show chords e-chords YouTube Clip e-chords hide all tabs e-chords go to top tab

share