Jesus Christ Superstar

home > Jesus Christ Super...

Damned For All Time Tab

Jesus Christ Superstar

Difficulty: BeginnerBeginner

by eduardo%5Flyvio

tuner correct add songbook print version text version save to e-mail
chordsukulelecavacokeyboardtabbassdrumsharmonicsflute Guitar Pro
chords

Damned For All Time

  		 {Intro: 
  
 E|-------------------------------| 
 B|------------------------18-----| 
 G|--------------------15--17b19--| 
 D|------------15--17-------------| 
 A|15~-----17---------------------| 
 E|-------------------------------| 
 
 
 E|-18---------18---------------------------18----------------|  
 B|-18---------18-----------------------------18--------------| 
 G|-19r17--15----(17)19r17-15--17--15--17b19-----19r17--15----|  
 D|--------------------------------------------------------17-| 
 A|-----------------------------------------------------------| 
 E|-----------------------------------------------------------| 
 
 
 E|------------------------------------------------------------| 
 B|---------------------------------------------------------18-| 
 G|10--------------------------------------------------17b19---| 
 D|10h12p10--8--10--10/12--10--8--8h10---10/12-----------------| 
 A|------------------------------------------------------------| 
 E|------------------------------------------------------------| 
 
 
 E|---------------6--------------------------------------------| 
 B|6-------6--6-----6------------------------------------------| 
 G|5b7-----3--5b7---7r5--3-------------------------------------| 
 D|-------------------------5-----------3----------------------| 
 A|-------------------------------------3h5p3---3--5--5/8--3---| 
 E|-------------------------------------------6----------------| 
 
 
 E|------------------------------------------------------------| 
 B|------------------------------------------------------------| 
 G|------------------------------------------------------------| 
 D|------------------------------------------------------------| 
 A|3--3p1--3--3/5--3--5---------------3-----3------------------| 
 E|----------------------------6------5-----4------3-----------| 
                                                  (Flutes begin)   
 
Flutes (arranged for guitar) 
 
 E|-/18--17--15--14--------/18-17-----/18-17-20-----20\13/16-15-| 
 B|-------------------------------------------------------------| 
 G|-/18--17--15--14--------/18-17-----/18-17-20-----20\13/16-15-| 
 D|-------------------------------------------------------------| 
 A|-------------------------------------------------------------| 
 E|-------------------------------------------------------------| 
 
 E|---16--19--22-----------13--16--19--| 
 B|18------------------15--------------| 
 G|19------------------16--------------| 
 D|------------------------------------| 
 A|------------------------------------| 
 E|------------------------------------| 
 
 E|------------------------------------------10-| 
 B|10--9-------10--9--12----9-------13-12-------| 
 G|10--8-------10--8--12----10------14-13-12-10-| 
 D|---------------------------------------------| 
 A|---------------------------------------------| 
 E|---------------------------------------------| 
 
 E|---------------10------------5-| 
 B|13---12----------------6--8----| 
 G|14---13--12-11-10------7--8--6-| 
 D|-------------------------------| 
 A|-------------------------------| 
 E|-------------------------------| 
 {bass: GG FF DD F                        D E F# G    C D E F } 
{chords:          G7aug9(Hendrix chord)  D7     G7   C7    F7 } 
 
                  GG FF DD     F       G7aug9   G7aug9  
Judas:   Now if I help  you it matters that you see 
------   These sordid kind of things are coming hard to me 
         It's taken me some time to work out what you do 
         I weighed the whole thing up before I came to you 
         I have no thought at all about my own reward  
         Eb                              F  
         I really didn't come here of my own accord 
{bass:   D E F# G      C D E F } 
{chords: D7     G7     C7    F7 }  
         Just   don't  say   I'm  
         Damned for    all   time 
 
         I came because I had to I'm the one who saw 
         Jesus can't control it like he did before. 
         And further more I know that Jesus thinks so too 
         Jesus wouldn't mind that I was here with you 
         I have no thought at all about my own reward 
         I really didn't come here of my own accord 
         Just don't say I'm 
         Damned for all time 
 
{sax solo} 
 
         Annas, you're a friend, a worldly man and wise, 
         Caiaphas, my friend I know your sympathize 
         Why are we the prophets?  Why are we the ones? 
         Who see the sad solution - know what must be done 
         I have no thought at all about my own reward 
         I really didn't come here of my own accord 
         Just don't say I'm 
         Damned for all time 
 

	  

Full key step upFull key step up
Half key step upHalf key step up
Half key step downHalf key step down
Full key step downFull key step down
Search Paypal
auto scroll beats size up size down change color hide chords drawings
tab show chords e-chords YouTube Clip e-chords hide all tabs e-chords go to top tab