Jars of Clay

Flood (acoustic)

Jars of Clay

tabs Expert expert

save to print version add songbook text version e-mail correct tuner
chordsukulelecavacokeyboardtabbassdrumsharmonicaflute Guitar Pro
close

there isn't a video lesson for this song

chords

Flood (acoustic)

	  		INTRO 
 
>--3-3-3-3-3-3-3-3-3-3-3-3 
>--1-1-1-1-1-1-3-3-3-3-3-3 
>--0-0-0-1-1-1-3-3-3-3-3-3                       2x 
>--0-0-0-1-1-1-0-0-0-1-1-1 
>--3-3-3-0-0-0-0-0-0-0-0-0 
>--0-0-0-0-0-0-0-0-0-0-0-0 
 
Verse 
 
Rain rain on my face.... 
 
>-----------------------------       Play this over and over until the chorus. 
>----------------------------- 
>----------------------------- 
>--5-5-5---3-3-3---------- 
>--3-3-3---1-1-1---5-5-5 
>--0-0-0---0-0-0---3-3-3 
 
Chorus 
 
If I can't swim after forty days... 
 
(Play the intro repeating) 
 
Lift me up...when I'm falling 
 
>--3-3---3-3-3-------------3-3-3 
>--3-3---1-1-1-------------3-3-3 
>--0-0---1-1-1-------------3-3-3                                  3x 
>--0-0---1-1-1---3-3-3---1-1-1 
>--0-0-------------1-1-1---------- 
>--3-3-------------0-0-0---------- 
 
Lift me up...to keep me from drowning again 
 
>--3-3---3-3-3---3-3-3---3-3-3---3-3-3-3-3 
>--3-3---1-1-1---3-3-3---3-3-3---1-1-1-1-1 
>--0-0---1-1-1---3-3-3---3-3-3---0-0-0-0-0 
>--0-0---1-1-1-------------1-1-1---0-0-0-0-0 
>--0-0---------------------------------3-3-3-3-3 
>--3-3--------------------------------------------- 
 
Violin solo, if you feel like playing it, just figure it out by ear 
 
Calm the storms.... 
 
>--3--4--6--3--3--4--6----------3--4--6--3--3--4--6 
>--4--4--6--4--4--4--6----------4--4--6--4--4--4--6 
>--5--5--7--3--5--5--7----------5--5--7--3--5--5--7 
>--5--6--8--5--5--6--8----------5--6--8--5--5--6--8 
>----------------------------------------------------------- 
>----------------------------------------------------------- 
 
Play chorus again 
 
I'm pretty sure this is right, I got it out of a book, so if it is wrong,
don't blame me, blame the book 
		  

See also:

tabs The Raveonettes - silent night (ver. 2) tabs Lee Greenwood - God Bless The Usa tabs Planetshakers - Fall in this place tabs Brad Paisley - The Old Rugged Cross tabs Caedmon's Call - April Showers tabs The Raveonettes - Hark! The Herald Angels Sing
e-chords

Other versions:

tabs Tool - Flood tabs Jars of Clay - Flood (acoustic) tabs Tool - Flood (ver. 2) tabs The Sisters Of Mercy - Floodland tabs Pantera - Floods tabs Pantera - Floods Long
auto scroll beats size up size down change color hide chords drawings
tab show chords e-chords YouTube Clip e-chords hide all tabs e-chords go to top tab

share