James Taylor

home > James Taylor

Stretch Of The Highway Tab

James Taylor

Difficulty: nolevelnolevel

by brunblazkowski

tuner correct add songbook print version text version save to e-mail
chordsukulelecavacokeyboardtabbassdrumsharmonicsflute Guitar Pro
chords

Stretch Of The Highway

  		Tuning:   standard 
Verse:  I was born singing yes I am      grew up some kind of traveling man............ 
e|-------------2---------3------2----0-0----2-----------------0-------2----0-----| 
B|-------------3------ 1----1---3----1-0----3------0-----3-----0------3----1---1---| 
G|-------------2------0-0---0---2----0-0----3---- 5-----0------ 5-----2----0---0-----| 
D|-------------0-----2--- --0---0----2-2---------5-----4---------5---0-----2---0-----| 
A|-------------0----0-------0----------0----0---0-----0----0--------------0---0----| 
E|-------------------------------------------------------------------------------| 
Chorus: Oh  its just a love-el-ly stretch of highway child   leading me on 
e|------3----------------------------------------------0-----------------5---------------2---| 
B|------0------0-------3------------3-----------3------3-----3-----------7-------0---0---3---| 
G|------2------3-------0------------0-----------0------0-----5-----------7------5-5--4---2---| 
D|------0------0------ 2------------2-----------2------4-----5-----------0-----5-----5---0---| 
A|---------------------0------------2-----------3------3-----0---------0------0------0--0-----| 
E|------3------2-------0------------0-----------0-------------------------------------------| 
     and my favorite thing is to miss my home 
e|----0--2----------------------------------3------------------------------------------| 
B|----3--3------3---------3----------3------3------------------------------------------| 
G|----0--2------0---------0---------0-------5------------------------------------------| 
D|----0--0------2---------0--------4--------5------------------------------------------| 
A|----0------- -3---------2-------3--------0------------------------------------------| 
E|-----------------------------------------------------------------------------------| 
     hen I'm gone             just as soon as I'm gone 
e|-----------2----------3--------2-------5---3-------2-------------------------------------| 
B|-----------3-------1--1--------3-------0---0-------3-------------------------------------| 
G|-----------2-------0--0--------2-------5---5-------2-------------------------------------| 
D|-----------0-------2--2--------0------ 5---5-------0-------------------------------------| 
A|-----------0-------0--0----------------0----------0-------------------------------------| 
E|--------------------------------------5------------------------------------------------| 
      bridge same as the verse 

************************************ 

| /   slide up 
| \   slide down 
| h   hammer-on 
| p   pull-off 
| ~   vibrato 
| +   harmonic 
| x   Mute note 
| b   Bend 
| pb  Pre-bend 
| br  Bend release 
| pbr Pre-bend release 
| brb Bend release bend 

************************************ 
	  

Search Paypal
auto scroll beats size up size down change color hide chords drawings
tab show chords e-chords YouTube Clip e-chords hide all tabs e-chords go to top tab