Ira!

Eu Quero Sempre Mais (ver. 2)

Ira!

tabs Expert expert

by  NEO_BOYJP

save to print version add songbook text version e-mail correct tuner
chordsukulelecavacokeyboardtabbassdrumsharmonicaflute Guitar Pro
close

there isn't a video lesson for this song

chords

Eu Quero Sempre Mais (ver. 2)

	  		 
Solo inicial: 
e|---------------------------------- 
b|---------------------------------- 
g|---------------------------------- 
d|----0-2-0------0-2-0------0-2-0--- 
a|-3-3-----3-3--3-----3-0--3-----3-0 
E|---------------------------------- faça(2x) 
 
 
SOLO:     C                             F          G                 C  
e|---------------------------------------------------------------7-8----| 
B|--------------8-------8---------------------------------8-9-10-----8--| 
G|----7-7/9-9-9---9-7-9---9-7-7-7/9-7-5---10-9-7-5-7-9-10---------------| 
D|--------------------------------------7-------------------------------| 
                                  F              G         C       F  G 
G|------8------8------8-10/12-10-8---12-10-8----------------------------| 
B|-8-10---8-10---8-10------------------------12-10-8--------10-8/10-2x--| 
e|---------------------------------------------------10-9---9--7/9------| 
     C                     F          G  
G|--12--10--8------------------------------| 
B|-------------12--10-8-8/10-10-10-10/8----| 
e|-----------------------------------------| 
 

		  

Full key step upFull key step up
Half key step upHalf key step up
Half key step downHalf key step down
Full key step downFull key step down
hide glossary

See also:

tabs Legião Urbana - O Teatro Dos Vampiros tabs Legião Urbana - Será tabs Legião Urbana - A Ordem Dos Templários tabs Legião Urbana - Tempo Perdido tabs Paralamas do Sucesso - Alagados tabs Ira! - Eu quero sempre mais (Solo)
e-chords

Other versions:

tabs Ira! - Eu Quero Sempre Mais (Com Pitty, intro) tabs Ira! - Eu quero sempre mais (Solo) tabs Ira! - Eu Quero Sempre Mais (ver. 2)
auto scroll beats size up size down change color hide chords drawings
tab show chords e-chords YouTube Clip e-chords hide all tabs e-chords go to top tab

share