Ira!

Eu quero sempre mais (Solo)

Ira!

tabs Beginner beginner

by  WRICCE

save to print version add songbook text version e-mail correct tuner
chordsukulelecavacokeyboardtabbassdrumsharmonicaflute Guitar Pro
close

there isn't a video lesson for this song

chords

Eu quero sempre mais (Solo)

(Edgard Scandurra)

	  		E|-3-x--3-x--3-x--5~--3------------------------------------------------------------------|  
B|-3-x--3-x--3-x--5~-----5--3--5--5--3--5--5--3--5--5--3--5--------6--5------------------|  
G|-----------------------------------------------------------5--2------------------------|  
D|---------------------------------------------------------------------------------------|  
A|---------------------------------------------------------------------------------------|  
E|---------------------------------------------------------------------------------------|  
 
     
E|-------------------5-8---------8H10------8H10------8H10--8--10--12--12--10--8----------|  
B|---------------6-8-----8--8H10------8H10------8H10-------------------------------------|  
G|------5---5-7--------------------------------------------------------------------------|  
D|-5H7----7------------------------------------------------------------------------------|  
A|---------------------------------------------------------------------------------------|  
E|---------------------------------------------------------------------------------------|  
 
  
E|-121212--101010--888--777--555--333--111--000---5-5--3--5-5-5--3--5-3--5-5-5-3-5-3~----|  
B|------------------------------------------------5-5--3--5-5-5--3--5-3--5-5-5-3-5-3~----|  
G|---------------------------------------------------------------------------------------|  
D|---------------------------------------------------------------------------------------|  
A|---------------------------------------------------------------------------------------|  
E|---------------------------------------------------------------------------------------|  
 
E|-121212-121212-10-8-7-5H7-3H5-1--12-10-8-7-5-3H5--3~-----------------------------------|  
B|--------------------------------------------------3~-----------------------------------|  
G|--------------------------------------------------0~-----------------------------------|  
D|--------------------------------------------------0~-----------------------------------|  
A|---------------------------------------------------------------------------------------|  
E|---------------------------------------------------------------------------------------|  
 
 
CIFRADO POR DENIS BERTOLETI PACHECO  
 
OBS: Esse solo foi tirado de ouvido, qualquer erro por  
favor mande um email para [email protected] 
 

		  

See also:

tabs Engenheiros do Hawaii - Infinita Highway tabs B5 - Só mais uma vez tabs Rodox - Dia Quente tabs Legião Urbana - Há Tempos tabs Raul Seixas - Tente outra vez tabs Engenheiros do Hawaii - Pra ser sincero ( ver. 2)
e-chords

Other versions:

tabs Ira! - Eu Quero Sempre Mais (Com Pitty, intro) tabs Ira! - Eu quero sempre mais (Solo) tabs Ira! - Eu Quero Sempre Mais (ver. 2)
auto scroll beats size up size down change color hide chords drawings
tab show chords e-chords YouTube Clip e-chords hide all tabs e-chords go to top tab

share