Indk

Start It Up

Indk

tabs

by  ROBEPOIEL

save to print version add songbook text version e-mail correct tuner
chordsukulelecavacokeyboardtabbassdrumsharmonicaflute Guitar Pro
close

there isn't a video lesson for this song

chords

Start It Up

	  		Tuning: D# 

Intro/Chorus 
e|--------------------------------------------------------------------------| 
B|--------------------------------------------------------------------------| 
G|------------11--6--7--7--6--7--------11--4--7--7-6--7---------------------| 
D|------7--7--11--6--7--7--6--7--7--7--11--4--7--7-6--7---------------------| 
A|------7--7---9--4--5--5--4--5--7--7--9---6--5--5-4--5---------------------| 
E|------5--5---------------------5--5---------------------------------------| 

e|--------------------------------------------------------------------------| 
B|--------------------------------------------------------------------------| 
G|------------11--6--7--7--6--7--------11--4--7--7-6--9---------------------| 
D|------7--7--11--6--7--7--6--7--7--7--11--4--7--7-6--9---------------------| 
A|------7--7---9--4--5--5--4--5--7--7--9---6--5--5-4--7---------------------| 
E|------5--5---------------------5--5---------------------------------------| 

Pre-Verse 
e|--------------------------------------| 
B|--------------------------------------| 
G|-11--9--7-6-11--9--7-6--11-9--7-6-7---|  X2 
D|--------------------------------------| 
A|--9--7--5-4--9--7--5-4--9--7--5-4-5---| 
E|--------------------------------------| 

e|-----------------------------0------| 
B|-----------------------------0------| 
G|-----------------------------1------| 
D|-7-6-7-4-7-6-7-4-7-6-7-4-7-6-2------| 
A|-7-6-7-4-7-6-7-4-7-6-7-4-7-6-2------| 
E|-5-4-5-2-5-4-5-2-5-4-5-2-5-4-0------| 

Verse 
e|--------------------------------------------------------------------------| 
B|--------------------------------------------------------------------------| 
G|-7--9-----------7--9-----------7--9-----------7--9--------------------7-9-| 
D|-------7-6-7-4--------7-6-7-4--------7-6-7-4--------7-6-4-6-7-6-4-2-4-----| 
A|-5--7--7-6-7-4--5--7--7-6-7-4--5--7--7-6-7-4--5--7--7-6-4-6-7-6-4-2-4-5-7-| 
E|-------5-4-5-2--------5-4-5-2--------5-4-5-2--------5-4-2-4-5-4-2-0-2-----| 
		  

Full key step upFull key step up
Half key step upHalf key step up
Half key step downHalf key step down
Full key step downFull key step down
hide glossary

See also:

tabs Heart - Barracuda tabs Eagles - Hotel California tabs Deep Purple - Highway Star tabs White Stripes - 7 Nation Army (ver. 2) tabs Status Quo - Whatever you want tabs The Cranberries - Zombie
e-chords

Other versions:

tabs Indk - Start It Up
auto scroll beats size up size down change color hide chords drawings
tab show chords e-chords YouTube Clip e-chords hide all tabs e-chords go to top tab

share