Indk

Moonwalk Mafia

Indk

tabs

save to print version add songbook text version e-mail correct tuner
chordsukulelecavacokeyboardtabbassdrumsharmonicaflute Guitar Pro
close

there isn't a video lesson for this song

chords

Moonwalk Mafia

	  		
e|-10-9---------------  
B|------10-8-7--------  
G|-------------11-9-7-  
D|--------------------  
A|--------------------|  
E|--------------------|  
 
e|--------------------------------  
B|--------------------------------  
G|-7-9-11-11-12-11-12-11-12-11-12-  
D|--------------------------------  
A|--------------------------------  
E|--------------------------------  
 
(ska part)  
e|-9x 9x 9x 9 -9x 9x 9x 9 -4x4x4x4-4x4x4x4-  
B|-9x 9x 9x 9 -11x11x11x11-6x6x6x6-4x4x4x4-  
G|-10x10x10x10-11x11x11x11-6x6x6x6-5x5x5x5-  
D|-11x11x11x11-11x11x11x11-6x6x6x6-6x6x6x6-  
A|-------------9x 9x 9x 9 -4x4x4x4---------  
E|-----------------------------------------  
 
e|-------------------  
B|-------------------  
G|-------------------  
D|-11-6-11-6-8-6-8-6-  
A|-11-6-11-6-8-6-8-6-  
E|-9--4-9--4-6-4-6-4- 5x  
 
e|-----------------  
B|-----------------  
G|-----------------  
D|-11-6-11-6-8-6-4-  
A|-11-6-11-6-8-6-4-  
E|-9--4-9--4-6-4-2- 1x  
 
e|---------  
B|---------  
G|---------  
D|-3-4-4-6-  
A|-3-4-4-6-  
E|-1-2-6-4-  
 
e|----------  
B|----------  
G|----------  
D|-11-8-6-4-  
A|-11-8-6-4-  
E|-9--6-4-2-  
 
(then verse 1 5x again followed by 2d thing 1x then right into the woa part)  
 
then first verse 2x, then play solo thing then ska part in overdrive with second guitar 
playing verse)  
		  

See also:

tabs Heart - Barracuda tabs Eagles - Hotel California tabs Deep Purple - Highway Star tabs White Stripes - 7 Nation Army (ver. 2) tabs Status Quo - Whatever you want tabs The Cranberries - Zombie
e-chords

Other versions:

tabs Indk - Moonwalk Mafia
auto scroll beats size up size down change color hide chords drawings
tab show chords e-chords YouTube Clip e-chords hide all tabs e-chords go to top tab

share