Indk

Sunday Bombs

Indk

tabs

by  ROBEPOIEL

save to print version add songbook text version e-mail correct tuner
chordsukulelecavacokeyboardtabbassdrumsharmonicaflute Guitar Pro
close

there isn't a video lesson for this song

chords

Sunday Bombs

	  		First Part: 
e---------0---------| 
B---------0---------| 
G---9~----9---------| 
D---9~----9---------| 
A---7~----7---------| 
E-------------------| 

e---------        -----------------------------------------| 
B---------        --------   That whole riff is done-------| X2 
G----5--7-        -12-11-7   <-----------------------------| 
D-2--5--7- <-X3   -x--x--x      and we'll call this riff 1-| 
A-2--3--5- Then-> -10-9--5---------------------------------| 
E-0-------        -----------------------------------------| 

Verse: 

e-------------------| 
B-------------------| 
G----5--7--9---7--5-|   Thats done X4 But the 3rd and 4th time 
D-2--5--7--9---7--5-|                    the open E is muted 
A-2--3--5--7---5--3-|             and we will call this riff 2 
E-0-----------------| 


Chorus: 
e-----------------                                e----------| 
B-----------------                                B----------| 
G--3--5--2--3-----  <-- X3 but the third time     G-----5--7-| 
D--3--5--2--3--5--         instead of 5  you go   D--2--5--7-| 
A--5--3--0--5--5--                    5           A--2--3--5-| 
E--------------3--                    3           E--0-------| 


Then back to riff 1 (X1) 

Then Verse 

Then the whole Chorus X2 

Solo: 

e--15*-14--12---------------------------------------------------| 
B-------------15*--12-13-12--------------------------12-13 <----|part A 
G--------------------------------14--12-------12-14-------------|      of solo 
D-----------------------------------------14--------------------|   (lead guitar) 
A---------------------------------------------------------------| 
E---------------------------------------------------------------| 

e---------------------------------------------------------------------------| 
B-13*--12--12-13p12-12*-15p12(x3)--13--12-------------------13-12-----------| 
G-----------------------------------------14--12-------12-14------14-12-----| 
D------------------------------------------------14-14-------------------14-| 
A---------------------------------------------------------------------------| 
E---------------------------------------------------------------------------| 
                          ^part B of solo  (lead) 


During the solo (part A) the rhythem guitar plays the Chorus X2 
And during part B the rhythem plays riff 2 X1 then riff one X1 
		  

Full key step upFull key step up
Half key step upHalf key step up
Half key step downHalf key step down
Full key step downFull key step down
hide glossary

See also:

tabs Queen - Bohemian Rhapsody tabs Yes - Roundabout tabs Billy Idol - White Wedding tabs The Rolling Stones - Paint it Black tabs The Shadows - Apache tabs Staind - Outside Acoustic
e-chords

Other versions:

tabs Indk - Sunday Bombs
auto scroll beats size up size down change color hide chords drawings
tab show chords e-chords YouTube Clip e-chords hide all tabs e-chords go to top tab

share