Indk

Pole Position

Indk

tabs

by  FERNSANTANA

save to print version add songbook text version e-mail correct tuner
chordsukulelecavacokeyboardtabbassdrumsharmonicaflute Guitar Pro
close

there isn't a video lesson for this song

chords

Pole Position

	  		Intro:  
e---------| 
B---------| 
G--5---7--| 
D--5---7--| 
A--3---5--| 
E---------| 

Chorus: 
e---------------------------------------------| 
B---------------------------------------------| 
G----5------7---5--4-------5------7---5--7----|  X2 
D-2--5--5---7---5--4---2---5--5---7---5--7----| 
A-2--3--5---5---3--2---2---3--5---5---3--5----| 
E-0-----3--------------0------3---------------| 


Verse: 
e---------            e------------| 
B---------            B------------| 
G--7/---9- X2 third-->G-7---9---12-| 
D--x----x-    time    D-x---x---x--| 
A--5/---7-            A-5---7---10-| 
E---------            E------------| 

Then... 

e---------       e--------| 
B---------       B--------| 
G--7/---9- X2    G-7--3---| X2  well call this riff a 
D--x----x-       D-7--3---| 
A--5/---7-       A-5--5---| 
E---------       E--------| 

^ that whole thing X2 

Then riff A X2 

then Chorus riff X2 

then the whole verse 

then the Chorus again 
		  

See also:

tabs Queen - Bohemian Rhapsody tabs Yes - Roundabout tabs Billy Idol - White Wedding tabs The Rolling Stones - Paint it Black tabs The Shadows - Apache tabs Staind - Outside Acoustic
e-chords

Other versions:

tabs Indk - Pole Position
auto scroll beats size up size down change color hide chords drawings
tab show chords e-chords YouTube Clip e-chords hide all tabs e-chords go to top tab

share