Igor Presnyakov

Hey Brother

Igor Presnyakov

tabs

by  TERCMORAES

save to print version add songbook text version e-mail correct tuner
chordsukulelecavacokeyboardtabbassdrumsharmonicaflute Guitar Pro
close

there isn't a video lesson for this song

chords

Hey Brother

	  		

Tuning: Full step down (D tuning) 

d|-----------------------------------|---------------------------------------| 
A|-----------------------------------|---------------------------------------| 
F|--------2-------2-------2-------2--|--------2-------2-------2-------2------| 
C|-----------------------------------|---------------------------------------| 
G|----0-------0-------0-------0------|----0-------0-------0-------0----------| 
D|-----------------------------------|---------------------------------------| 

d|----0------------------------------|--------------------------------0------| 
A|----1------------------------------|-----------------------------1---------| 
F|----2-----------2-------2-------2--|----0-h-2-------2-------2--------------| 
C|----2------------------------------|----0-h-2------------------------------| 
G|----0-------0-------0-------0------|----0-------0-------0------------------| 
D|-----------------------------------|---------------------------------------| 

d|-----------------------------------|---------------------------------------|--------------------| 
A|----3-------1----------------------|---------------------------------------|--------------------| 
F|----2-------2-------0h2-----0------|----0h2-----0-------2-----------2------|-------2-------2----| 
C|------------------------0----------|--------0------------------------------|--------------------| 
G|--------------------3-------3------|------------------------3--------------|--------------------| 
D|----1-------1----------------------|----3-------3-------5-------5----------|---5-------5--------| 

d|----0------------------------------|--------------------------------0------| 
A|----1-----------1-------1-------1--|-----------------------------1---------| 
F|----2-----------2-------2-------2--|---0-h--2-------2-------2--------------| 
C|----2------------------------------|---0-h--2------------------------------| 
G|----0-------0-------0-------0------|---0--------0-------0------------------| 
D|-----------------------------------|---------------------------------------| 

d|-----------------------------------|---------------------------------------|--------------------| 
A|----3-------1----------------------|------------------------1--------------|--------------------| 
F|----2-------2-------0h2-----0------|----0h2-----0-------1/2----------2-----|-------2-------2----| 
C|--------------------0--------------|--------0------------------------------|--------------------| 
G|--------------------3-------3------|--------------------0-------0----------|---0-------0--------| 
D|----1-------1----------------------|----3----------------------------------|--------------------| 

d|----3------------------------------|----0----------------------------------| 
A|----3-----------3------------1--3--|------------3-------1------------------| 
F|----4-----------4-------0----------|--------0-------0---2-------2----0-----| 
C|----5------------------------------|------------------------3--------------| 
G|----5------------------------------|----3----------------------------------| 
D|----3-------3-------3--------------|--------------------1------------------| 

d|-----------------------------------|---------------------------------------| 
A|----3---------------------------1--|----3----------------------------------| 
F|----0-----------0-------0-------0--|----0-----------0-------0--------2-----| 
C|----0------------------------------|---------------------------------------| 
G|----2------------------------------|---------------------------------------| 
D|----3-------3-------3-------3------|----3-------3-------3-------3----------| 

d|--------0--------------------------|---------------------------------------| 
A|----1h3-----3-------1--------------|---------------------------------------| 
F|--------------------2---2---2-r-0--|----2----------------------------------| 
C|--------------------3---3---3-r-0--|----2----------------------------------| 
G|----3------------------------------|----0----------------------------------| 
D|--------------------1--------------|---------------------------------------| 

Repeat the same with tapping. The last measure will be: (listen to the song for the strum pattern) 

d|----8--8-8----8-8---8--8-8----8-8--|----8----------------------------------| 
A|----5--5-5--5-5-5---5--5-5--5-5-5--|----5----------------------------------| 
F|----5--5-5--5-5-5---5--5-5--5-5-5--|----5---------------5-------4----------| 
C|----7-------7-------7-------7------|----7---------------x-------x----------| 
G|----7---------------7--------------|----7---------------3-------2----------| 
D|-----------------------------------|---------------------------------------| 

d|----------------0--------0------0--|-----------5-----5-|----3--3-------------------------------| 
A|------------1---1---1----1---1--1--|----5---5--5--5--5-|----1--1----1--1-1--1--1-1--1--1-1-----| 
F|----2-------2---2---2----2---2--2--|----5---5--5--5--5-|----0--0----0--0-0--0--0-0--0--0-0-----| 
C|----2-------2---2---2----2---2--2--|----7---7--7--7--7-|----2--2----2--2-2--2--2-2--2--2-2-----| 
G|----0-------0-------0--------0-----|----8------8-------|----3--3----3-------3-------3----------| 
D|-----------------------------------|-------------------|---------------------------------------| 

d|----3----3------------------3------|----------------0--------0------0------| 
A|----1----1--1--1-1--1-------3---x--|------------1---1---1----1---1--1------| 
F|----0----0--0--0-0--0-------0---x--|----2-------2---2---2----2---2--2------| 
C|----2----2--2--2-2--2-------0---x--|----2-------2---2---2----2---2--2------| 
G|----3-------3-------3-------2------|----0-------0-------0--------0---------| 
D|-----------------------------------|---------------------------------------| 

d|----5---5--8--8----|----3--3-------------------------------|----3-/-5---3---3---0---0---0----------| 
A|----5---5--5--5--5-|----1--1----1--1-1--1--1-1--1--1-1-----|----1-/-3---1---1---1---1---1----------| 
F|----5---5--5--5--5-|----0--0----0--0-0--0--0-0--0--0-0-----|----0-------0---0---0---0---0----------| 
C|----7---7--7--7--7-|----2--2----2--2-2--2--2-2--2--2-2-----|----2-/-4---2---2---2---2---2----------| 
G|-------------------|----3--3----3-------3-------3----------|----3-/-5---3-------3-------3----------| 
D|-------------------|---------------------------------------|---------------------------------------| 

d|-----------------------------------|----0----------------------------------| 
A|----3--3-3--3--3-3--3--3-3--1---3--|----1-------3-------1---1---1---1------| 
F|----4--4-4--4--4-4--4--4-4--0---0--|----0-------0-------2---2---2---2------| 
C|----5--5-5--5--5-5--5--5-5--2---2--|----2-------2-------3---3---3---3------| 
G|----5--5-5--5--5-5--5--5-5--3---3--|----3-------3-------3---3---3---3------| 
D|----3-------3-------3--------------|--------------------1-------1----------| 

He just plays a few chords here. Listen to the song to get the rythm. 

d|-----------------------------------|---------------------------------------| 
A|----5-------5-------5-------5------|----3-------3-------3-------3----------| 
F|----4-------4-------4-------4------|----4-------4-------4-------4----------| 
C|----5-------5-------5-------5------|----5-------5-------5-------5----------| 
G|----3-------3-------3-------3------|----5-------5-------5-------5----------| 
D|-----------------------------------|----3-------3-------3-------3----------| 

d|----0-------0----------------------|----0-------5h8-----5h7-----5----------| 
A|----1-------1-------1-------1------|----1-------5-------5-------5----------| 
F|----0-------0-------2-------2------|----2-------5-------5-------5----------| 
C|----2-------2-------3-------3------|----2----------------------------------| 
G|----3-------3-------3-------3------|----0----------------------------------| 
D|--------------------1-------1------|---------------------------------------| 

d|-----------------------------------|----0---------------------------3-3----| 
A|-----------------------------------|----1---1---1---1---1---3-/-5----------| 
F|------------5-------4-------2------|----2---2---2---2---2------------------| 
C|------------x-------x-------2------|----2----------------------------------| 
G|------------3-------2-------0------|----0----------------------------------| 
D|-----------------------------------|---------------------------------------| 

d|----5-------5-------3-------3------|----0-------------------------------3--| 
A|----6-------6-------1-------1------|----1---1---1---1---1-----------5------| 
F|-------------------------------0h2-|----2---2---2---2---2---2-/-5----------| 
C|-----------------------------------|---------------------------------------| 
G|----8-------8----------------------|----0----------------------------------| 
D|--------------------3-------3------|---------------------------------------| 

d|----5---8-r-5----------------------|------------------------------------3--| 
A|--------------------8-------3r1r0--|--------1---1---1---1-----------5------| 
F|--------------------9--------------|----2---2---2---2---2---2-/-5----------| 
C|-----------------------------------|---------------------------------------| 
G|-----------------------------------|----0----------------------------------| 
D|----8---------------7--------------|---------------------------------------| 

d|----5-------5-------3-------3------|----0---0---0---0---0---0---0----------| 
A|--------------------0-------0--0h1-|----1---1---1---1---1---1---1----------| 
F|----------------0--------------0h2-|----2---2---2---2---2---2---2----------| 
C|-----------------------------------|---------------------------------------| 
G|----8---8---8----------------------|----0----------------------------------| 
D|--------------------3--------------|---------------------------------------| 
         
		                              He begins strumming again here...	   
d|----5-------8---------------7------|----0----------------------------------| 
A|----5-------5-------8-------8------|----1----------------------------------| 
F|----5-------5-------9-------9------|----2----------------------------------| 
C|-----------------------------------|----2----------------------------------| 
G|-----------------------------------|----0----------------------------------| 
D|----8---------------7--------------|---------------------------------------| 

d|--------------------3--------------|----0----------------------------------| 
A|--------------------0--------------|----1----------------------------------| 
F|----10--------------0----------0h2-|----2----------------------------------| 
C|----10--------------0--------------|----2----------------------------------| 
G|--/-8---------------2--------------|----0----------------------------------| 
D|--------------------3--------------|---------------------------------------| 

d|----5---8-r-5-------7--------------|----0----------------------------------| 
A|----5---5---5-------8-------3r1r0--|----1----------------------------------| 
F|----5---5---5-------9--------------|----2----------------------------------| 
C|----5---------------9--------------|----2----------------------------------| 
G|----x---------------x--------------|----0----------------------------------| 
D|----8---------------7--------------|---------------------------------------| 

d|----5-------5-------3-------3------|----0----------------------------------| 
A|----6-------6-------0-------0------|----1----------------------------------| 
F|----5-------5-------0-------0------|----2----------------------------------| 
C|----7-------7-------0-------0------|----2----------------------------------| 
G|----8-------8-------2-------2------|----0----------------------------------| 
D|--------------------3-------3------|---------------------------------------| 

d|----5---5---8-------7-------7------|----0----------------------------------| 
A|----5---5---5-------8-------8------|----1----------------------------------| 
F|----5---5---5-------9-------9------|----2----------------------------------| 
C|----5---5---5-------9-------9------|----2----------------------------------| 
G|----x---------------7-------7------|----0----------------------------------| 
D|----8-------8-------7-------7------|---------------------------------------| 

Continue to play the above chords for a bit. Then he repeats the verse with a 
few variations, then does the same chord pattern. That's it. 


************************************ 

| /   slide up 
| \   slide down 
| h   hammer-on 
| p   pull-off 
| ~   vibrato 
| +   harmonic 
| x   Mute note 
| b   Bend 
| pb  Pre-bend 
| br  Bend release 
| pbr Pre-bend release 
| brb Bend release bend 

************************************ 
		  

Full key step upFull key step up
Half key step upHalf key step up
Half key step downHalf key step down
Full key step downFull key step down
auto scroll beats size up size down change color hide chords drawings
tab show chords e-chords YouTube Clip e-chords hide all tabs e-chords go to top tab

share