DDT

Ata Vseo

DDT

tabs Beginner beginner

by  IGORT1

save to print version add songbook text version e-mail correct tuner
chordsukulelecavacokeyboardtabbassdrumsharmonicaflute Guitar Pro
close

there isn't a video lesson for this song

chords

Ata Vseo

	  		Вступление: 
                1-я гитара 
                1|---------0--------------0-----------3------------0---------------------- 
                2|-------0----0---------1----1------3----3-------3----3------------------- 
                3|-----0---------0----0-----------0---------3---2--------2---------------- 
                4|---------------------------------------------0-------------------------- 
                5|------------------3----------------------------------------------------- 
                6|---0--------------------------3----------------------------------------- 

                2-я гитара 
                1|-------------------------------------------------0--------------------- 
                2|-----------------------------------------------3----3------------------ 
                3|----------------------------------------------2--------2--------------- 
                4|------------------------5-4------------------0------------------------- 
                5|------------2-----3-------------------0-2-3---------------------------- 
                6|---0--------------------------3-----3---------------------------------- 

                ########################################################################## 

                1-я гитара 
                1|---------0--------------0-----------3------------0---------------------- 
                2|-------0----0---------1----1------3----3-------3----3------------------- 
                3|-----0---------0----0-----------0---------3---2--------2---------------- 
                4|---------------------------------------------0-------------------------- 
                5|------------------3----------------------------------------------------- 
                6|---0--------------------------3----------------------------------------- 

                2-я гитара 
                1|-------------------------------------------------0--------------------- 
                2|-----------------------------------------------3----3------------------ 
                3|----------------------------------------------2--------2--------------- 
                4|------------------------5-4---5/9~~~---------0------------------------- 
                5|------------2-----3---------------------------------------------------- 
                6|---0------------------------------------------------------------------- 

                Куплет играется также, но во второй его части 2-я гитара подыгрывает 
                аккордами: Em C G D 
                Этими же аккордами играется все остальное, что не играется перебором :) 
                (так проще) 

                Коронована луной, 
                Как начало - высока, 
                Как победа - не со мной, 
                Как надежда - нелегка. 
                За окном стеной метель, 
                Жизнь по горло занесло, 
                Сорвало финал с петель, 
                Да поела всё тепло... 

Припев:         Играй как можешь, сыграй 
                Закрой глаза и вернись, 
                Не пропади, но растай 
                Да колее поклонись, 
                Моё окно отогрей, 
                Пусти по полю весной, 
                Не доживи, но созрей, 
                И будешь вечно со мной 
                И будешь вечно со мной 
                И будешь вечно со мной 
                Со мной 

                Ищут землю фонари, 
                К небу тянется свеча, 
                На снегу следы зари, 
                Крылья павшего луча, 
                Что же, вьюга, наливай, 
                Выпьем время натощак, 
                Я спою, ты в такт пролай 
                О затерянных вещах 

                Припев 

                Осторожно, не спеша, 
                С белым ветром на груди, 
                Где у вмерзшей в лед ладьи, 
                Ждет озябшая душа 

                Проигрыш 

                Припев 
		  

Full key step upFull key step up
Half key step upHalf key step up
Half key step downHalf key step down
Full key step downFull key step down
hide glossary

See also:

tabs DDT - Ata Vseo
e-chords

Other versions:

tabs DDT - Ata Vseo
auto scroll beats size up size down change color hide chords drawings
tab show chords e-chords YouTube Clip e-chords hide all tabs e-chords go to top tab

share