I Hate Myself

Kind Of A Long Way Down

I Hate Myself

tabs

by  FERNSANTANA

save to print version add songbook text version e-mail correct tuner
chordsukulelecavacokeyboardtabbassdrumsharmonicaflute Guitar Pro
close

there isn't a video lesson for this song

chords

Kind Of A Long Way Down

	  		

Verse: played extremely slowly 
e|---0-5---3-------0---3---5--3-----0---3---5------0---3---5-------| 
B|-1---------------------------------------------------------------| 
G|-------------0-----------------0-------------0---------------0---| 
D|-----------------------------------------------------------------| 
A|-----------------------------------------------------------------| 
E|-----------------------------------------------------------------| 
 |                                                                 | 
e|---3---3---3-------3---3---3-------3---3---3-------3---3---3-----| 
B|-1---------------1---------------1---------------1---------------| 
G|-----2---------0-----2---------0-----2---------0-----2---------0-| 
D|---------3---2-----------3---2-----------3---2-----------3---2---| 
A|-----------------------------------------------------------------| 
E|-----------------------------------------------------------------| 

Chorus: x4 
e|-0---3-------------|-------| 
B|-------------------|-------| 
G|---------0---------|-------| 
D|-------------------|-<5>---| 
A|-------------------|-------| 
E|-------------------|-------| 
 |                   |       | 
e|---3---3-----------|-------| 
B|-1-----------------|-------| 
G|-----2-----0-------|-------| 
D|---------3---------|-------| 
A|-------------------|-------| 
E|-------------------|-------| 


Outro: x4 
e|----------------------------------| 
B|----------------------------------| 
G|-0---0---2-0---------0------------| 
D|-5-------0-------0---0------------| 
A|-3------------3-/5---5------------| 
E|---------------------3------------| 
		  

auto scroll beats size up size down change color hide chords drawings
tab show chords e-chords YouTube Clip e-chords hide all tabs e-chords go to top tab

share