Hiss

Back On The Radio

Hiss

tabs

by  ANG-LETRA

save to print version add songbook text version e-mail correct tuner
chordsukulelecavacokeyboardtabbassdrumsharmonicaflute Guitar Pro
close

there isn't a video lesson for this song

chords

Back On The Radio

	  		Tuning:  E a d g b e 

ill work on the solo later 

afinação: padrão -> E B G D A E 

Tom: B 

Intro: - guitarra 2 
 
E|---------------------------------------------------------------| 
B|---------------------------------------------------------------| 
G|---------------------------------------------------------------| 
D|--9-9-9-9--9-9-9-9--9-9-9-9--9-9-9-9---------------------------| 
A|--9-9-9-9--9-9-9-9--9-9-9-9--9-9-9-9---------------------------| 
E|--7-7-7-7--7-7-7-7--7-7-7-7--7-7-7-7---------------------------| 
 

 
E|---------------------------------------------------------------| 
B|---------------------------------------------------------------| 
G|---------------------------------------------------------------| 
D|--12-12-12-12--12-12-12-12--12-12-12-12--12-12-12-12-----------| 
A|--12-12-12-12--12-12-12-12--12-12-12-12--12-12-12-12-----------| 
E|--10-10-10-10--10-10-10-10--10-10-10-10--10-10-10-10-----------| 
 

 
E|---------------------------------------------------------------| 
B|---------------------------------------------------------------| 
G|---------------------------------------------------------------| 
D|--5--5-5-5-5-5-5----4--4-4-4-4-4-4-----------------------------| 
A|--5--5-5-5-5-5-5----4--4-4-4-4-4-4-----------------------------| 
E|--3--3-3-3-3-3-3----2--2-2-2-2-2-2-----------------------------| 
 

 
E|---------------------------------------------------------------| 
B|---------------------------------------------------------------| 
G|---------------------------------------------------------------| 
D|--9-9-9-9--9-9-9-9--9-9-9-9--9-9-9-9---------------------------| 
A|--9-9-9-9--9-9-9-9--9-9-9-9--9-9-9-9---------------------------| 
E|--7-7-7-7--7-7-7-7--7-7-7-7--7-7-7-7---------------------------|                                               está é a base para toda a música 
 
********************************************************************* 

riff: - guitarra 1 
 
E|---------------------------------------------------------------| 
B|--9b10r9p7-----------------------------------------------------| 
G|--9b10r9p7-----------------------------------------------------| 
D|-----------h9--------------------------------------------------| 
A|---------------------------------------------------------------| 
E|---------------------------------------------------------------| 
 

guitarra 2 
 
E|---------------------------------------------------------------| 
B|---------------------------------------------------------------| 
G|---------------------------------------------------------------| 
D|-9-9...--9p7h9p7h9p7-------------------------------------------| 
A|---------------------------------------------------------------| 
E|---------------------------------------------------------------| 
 
(obs: estas são as notas certas, porem escute a música numa velocidade bem lenta pra entender melhor) 

riff 2: - guitarra 1 
 
E|---------------------------------------------------------------| 
B|--9b10r9p7-----------------------------------------------------| 
G|--9b10r9p7-----------------------------------------------------| 
D|-----------h9--------------------------------------------------| 
A|---------------------------------------------------------------| 
E|---------------------------------------------------------------| 
 
		  

Full key step upFull key step up
Half key step upHalf key step up
Half key step downHalf key step down
Full key step downFull key step down
hide glossary

See also:

tabs David Aguilar - Eco tabs Misc Computer Games - The Witcher 3 Ost - Lullaby Of Woe A Night To Remember Song (acoustic) tabs Misc Computer Games - Damned Black Ops Zombies Menu Music tabs Misc Computer Games - Undertale - His Theme tabs Misc Television - Gravity Falls Theme tabs Misc Computer Games - Far Cry 5 - We Will Rise Again
e-chords

Other versions:

tabs Hiss - Back On The Radio
auto scroll beats size up size down change color hide chords drawings
tab show chords e-chords YouTube Clip e-chords hide all tabs e-chords go to top tab

share