Misc Television

Better Call Saul Theme

Misc Television

tabs

by  ROBEPOIEL

save to print version add songbook text version e-mail correct tuner
chordsukulelecavacokeyboardtabbassdrumsharmonicaflute Guitar Pro
close

there isn't a video lesson for this song

chords

Better Call Saul Theme

	  		

Tuning: Standard 

e|-----5------------------9----------0---------12-10-8~--------------------| 
B|-----5-------------------10--------13--------x---------------------------| 
G|-----6---------------/9----9-------12------------------------------------| 
D|-----7-----------------------------14------------------------------------| 
A|---Whammy----------------------------------------------------------------| 
E|-------------------------------------------------------------------------| 

e|-----5-------------------9-----------------------------------------------| 
B|-----5--------------------10----------------5-4-3-1~-------1-3-----------| 
G|-----6---------------/9-----9--------------------------------------------| 
D|-----7------------------------------------------------1h2----------------| 
A|---Whammy------------------------------------------------------0-3-0-----| 
E|---------------------------------0--x-x----------------------------------| 
                                                                 x x x   



************************************ 
| For whammy do a few tiny dips 
| /   slide up 
| h   hammer-on 
| ~   vibrato 
| x   Mute note 

************************************ 
		  

See also:

tabs David Aguilar - Eco tabs Misc Computer Games - The Witcher 3 Ost - Lullaby Of Woe A Night To Remember Song (acoustic) tabs Misc Computer Games - Damned Black Ops Zombies Menu Music tabs Misc Computer Games - Undertale - His Theme tabs Misc Television - Gravity Falls Theme tabs Misc Computer Games - Far Cry 5 - We Will Rise Again
e-chords

Other versions:

tabs Misc Television - Better Call Saul Theme
auto scroll beats size up size down change color hide chords drawings
tab show chords e-chords YouTube Clip e-chords hide all tabs e-chords go to top tab

share