Hinos

Hino Rio Grandense

Hinos

tabs Easy easy

by  ANG-LETRA

save to print version add songbook text version e-mail correct tuner
chordsukulelecavacokeyboardtabbassdrumsharmonicaflute Guitar Pro
close

there isn't a video lesson for this song

chords

Hino Rio Grandense

	  		e|-----------------------------------------------------| 
B|-------8--7-5----------------------------------------| 
G|-4-5-7--------7-4--7-7-5----4------7-----------------| 
D|--------------------------7----5-7-------------------| 
A|-----------------------------------------------------| 
E|-----------------------------------------------------| 

e|-----------------------------------------------------| 
B|-------8--8-7-5-8-8?8-7-5-7----7-5-------------------| 
G|-4-5-7-----------------------------7-4-4-------------| 
D|-----------------------------------------------------| 
A|-----------------------------------------------------| 
E|-----------------------------------------------------| 

e|------------------------------------------------------8-5-5--------5-7-----| 
B|---------------------------------------8---5-5-6-6-5--------8--7-8-----8-5-| 
G|-7-5--7-7-5--7-4----7-5--7-7-5--7-4------7---------------------------------| 
D|-----------------5------------------5--------------------------------------| 
A|---------------------------------------------------------------------------| 
E|---------------------------------------------------------------------------| 

e|-8-5-5-----------------------------------------------| 
B|-------8----5-7-8-8-----5---5-7-8-8------5---5-7-8-8-| 
G|----------7---------7-7---7----------7-7---7---------| 
D|-----------------------------------------------------| 
A|-----------------------------------------------------| 
E|-----------------------------------------------------| 
		  

See also:

tabs Brasil - Hino Brasileiro tabs Hinos - Hino Nacional Brasileiro tabs Hinos - Hino Rio Grandense tabs Hinos - Hino Brasileiro tabs Brasil - Hino Nacional tabs Hinos - Hino FrancÍs - La Marseillaise
e-chords

Other versions:

tabs Hinos - Hino Rio Grandense
auto scroll beats size up size down change color hide chords drawings
tab show chords e-chords YouTube Clip e-chords hide all tabs e-chords go to top tab

share