Hinos

home > Hinos

Hino Rio Grandense Tab

Hinos

Difficulty: EasyEasy

by ang%2Dletra

tuner correct add songbook print version text version save to e-mail
chordsukulelecavacokeyboardtabbassdrumsharmonicsflute Guitar Pro
chords

Hino Rio Grandense

  		e|-----------------------------------------------------| 
B|-------8--7-5----------------------------------------| 
G|-4-5-7--------7-4--7-7-5----4------7-----------------| 
D|--------------------------7----5-7-------------------| 
A|-----------------------------------------------------| 
E|-----------------------------------------------------| 

e|-----------------------------------------------------| 
B|-------8--8-7-5-8-88-7-5-7----7-5-------------------| 
G|-4-5-7-----------------------------7-4-4-------------| 
D|-----------------------------------------------------| 
A|-----------------------------------------------------| 
E|-----------------------------------------------------| 

e|------------------------------------------------------8-5-5--------5-7-----| 
B|---------------------------------------8---5-5-6-6-5--------8--7-8-----8-5-| 
G|-7-5--7-7-5--7-4----7-5--7-7-5--7-4------7---------------------------------| 
D|-----------------5------------------5--------------------------------------| 
A|---------------------------------------------------------------------------| 
E|---------------------------------------------------------------------------| 

e|-8-5-5-----------------------------------------------| 
B|-------8----5-7-8-8-----5---5-7-8-8------5---5-7-8-8-| 
G|----------7---------7-7---7----------7-7---7---------| 
D|-----------------------------------------------------| 
A|-----------------------------------------------------| 
E|-----------------------------------------------------| 
	  

Search Paypal
auto scroll beats size up size down change color hide chords drawings
tab show chords e-chords YouTube Clip e-chords hide all tabs e-chords go to top tab