Francisco Manuel

home > Francisco Manuel

Hino Brasileiro versão clássico Tab

Francisco Manuel

Difficulty: AdvancedAdvanced

by Vallim+guitar

tuner correct add songbook print version text version save to e-mail
chordsukulelecavacokeyboardtabbassdrumsharmonicsflute Guitar Pro
chords

Hino Brasileiro versão clássico

  		 
Essa é uma versão do hino para violão clássico. 
  
 
  
 
 
  H    Q  Q     E E E E  E E E E 
|------------|-------------------| 
|------------|----5-6-8-10-8-----| 
|---------9--|-10----------------| 
|------------|--7------------7-8-| 
|------------|-------------------| 
|---------8--|----------12-------| 
 
 
  +S  E. +S   E.  S  S  E  +Q      Q   E E  E  E  E E 
|-------------------------------|---------------------| 
|-------------------------------|----------------10-8-| 
|----------------------10-(10)--|-----10-9-12-10------| 
|-(8)-9--(9)-10-----10----------|-10------------------| 
|----------------12-------------|---------------------| 
|----------------13-------------|-----10---12----12---| 
 
 
  E E Q   E. S Q    Q   E  E  E  E  E  E 
|-----------------|----------------------| 
|--------------8--|----------------11-10-| 
|--------------7--|-9--12-11-12-14--0----| 
|-8-7--------8----|----------------------| 
|-----9--10-------|----------------------| 
|-----------------|-8--12-------12----13-| 
 
 
   +S   E.  E.  S  +E.  S  +E   S  S    +E  E +E   E  E  E  E  E 
|------------------------------------|----------------------------| 
|-(10)-11--13--14-(14)-15-(15)-------|----------------------------| 
|-------0--12----------14-(14)----12-|-(12)-9-(9)-12-11-12-14-15--| 
|----------14----------15-(15)-12----|----------------0----14--0--| 
|------------------------------13----|---------------------15-----| 
|-(13)-------------------------------|------8-(8)-12----12--------| 
 
 
   Q  E E Q  Q    E E Q  S S E +Q 
|---------------|-5-5-6------5-(5)--| 
|---------------|-5---6----5--------| 
|-14------------|-5---7----5--------| 
|---------------|--------7----------| 
|---------------|-------------------| 
|-12--8-6-4--5--|-------------------| 
 
 
  E. S +S  E S +E. S S  E.    E E E E E E E E 
|-5--6-(6)-5-5-(5)-----12--|------3---2-------| 
|----6-(6)---5-(5)---5-10--|-10---5---5---5---| 
|----7-(7)---5-(5)---5-----|--9---3---2---0---| 
|----8-(8)-----------------|-10---5---5---5---| 
|--------------------------|-10-----0---0-----| 
|------------------5-------|----5-----------5-| 
 
 
  E E Q  Q  E E   Q  Q  E E E E 
|-0---0--1--3-3-|-5--3--------3-| 
|-3---1--1--3---|-5--3----------| 
|-0---0--2--3---|-5--3----------| 
|-3---2--3------|-7--5--5-7-5---| 
|---0-----------|---------------| 
|---------------|---------------| 
 
 
  +S  S E +E   E  E  E  E  E   E  E E  E  E  E  +Q 
|-(3)---8-(8)----------------|------------------------| 
|-------5-(5)-11-------------|------------------------| 
|-------------------14----12-|---10---12--------------| 
|-----5----------12----10----|-8----7-----------------| 
|----------------------------|-----------13-----------| 
|-------------13----12----10-|----8---12----10-(10)---| 
 
 
  Q  E E E E E E   E E E E E E +Q     S E. +H     Q    E E E E  E E  E  E 
|----------3-----|-----------3-(3)--|---6--(6)-------|--------------------| 
|----------------|------------------|---3--(3)----5--|-6-5-6-8-10-8-10-11-| 
|----------3-----|-0-3-----0-3-(3)--|-3--------------|--------------------| 
|--------5-----2-|-------2----------|----------------|-7------------------| 
|------7-----3---|-----3------------|----------------|--------------------| 
|-8--8-----------|------------------|-------------8--|---------12---------| 
 
 
   +S   E.  +S   E.  S  S  E  +Q      Q   E E  E  E  E E 
|----------------------------------|---------------------| 
|-(11)-12--(12)-13-----------------|----------------10-8-| 
|-------------------------10-(10)--|-----10-9-12-10------| 
|----------------------10----------|-10------------------| 
|-------------------12-------------|---------------------| 
|-------------------13-------------|-----10---12----12---| 
 
 
  E E Q  E. S Q    Q   E  E  E  E  E  E 
|-6-5------------|-----------------------| 
|-----7--8----8--|----------------11-10--| 
|-------------7--|-9--12-11-12-14--0-----| 
|-----------8----|-----------------------| 
|----------------|-----------------------| 
|----------------|-8--12-------12----13--| 
 
 
   +S   E.  E.  S  +E.  S  +E   S  S    +E  E +E   E  E  E  E  E 
|------------------------------------|---------------------------| 
|-(10)-11--13--14-(14)-15-(15)-------|---------------------------| 
|-------0--12----------14-(14)----12-|-(12)-9-(9)-12-11-12-14-15-| 
|----------14----------15-(15)-12----|----------------0----14--0-| 
|------------------------------13----|---------------------15----| 
|-(13)-------------------------------|------8-(8)-12----12-------| 
 
 
   Q  E E Q  Q    Q   E  E E  E E  E 
|---------------|---------------------| 
|---------------|-6-------------------| 
|-14------------|----12-10-9-10-9-10--| 
|---------------|---------------------| 
|---------------|---------------------| 
|-12--8-6-4--5--|----12----8-10-8-10--| 
 
 
   E  E  Q  S  E. Q     E E E  E  E  E  E  E 
|--------------------|-----------------------| 
|-------------11--8--|-10-8-7----10----------| 
|-12-10-10-----7-----|--------12----12-11-12-| 
|-------12--8--------|------------------0----| 
|-------13-----------|-----------------------| 
|-12----13-----------|-12-----12----12----12-| 
 
 
   Q   Q   +E   E  +E   E    +S   E  S  +S   E  S  +S   E  S  +S   E. 
|-------------------------|--------------------------------------------| 
|-----13--(13)------------|--------------------------------------------| 
|-12-----------14-(14)-15-|-(15)-14-13-(13)-14-13-(13)-14-15-(15)-14---| 
|--------------14-(14)-15-|-(15)-14------------13-(13)-14-15-(15)------| 
|--------------15-(15)-17-|-(17)-15------------14-(14)-15-17-(17)------| 
|-----12--(12)------------|------17------------------------------------| 
 
 
  Q   S  E. E E E. S   +E  E +E  E +E  E E E 
|--------------------|-----------------------| 
|-------15-----------|-----------------------| 
|-------14------0----|---------------------3-| 
|----15--------------|-----------------------| 
|-0---------3-1------|-----------------------| 
|------------------3-|-(3)-1-(1)-0-(0)-1-3---| 
 
 
  E E E E E E E E   +S  E. +S  E S +S  E S +E  E 
|-----------------|------------------------------| 
|-----------------|--------------------1-3-(3)-3-| 
|-2---------3-----|--------------3-(3)-2-3-(3)-4-| 
|---2-3---5---5-5-|-(5)-3--(3)-5-5-(5)-----------| 
|-------4---------|------------------------------| 
|-----------------|------------------------------| 
 
 
  Q  E E E E +E  E   +S  S S S +S  E S +S  E.  Q 
|----5-3---6-(6)-5-|-(5)-----3-(3)-1----------12--| 
|-5--5-3-3-6-(6)-5-|-(5)---5-5-(5)---1-(1)-3------| 
|-5--5-3---7-(7)-5-|-(5)---5----------------------| 
|----------8-(8)-7-|-(7)--------------------------| 
|------------------|------------------------------| 
|------------------|-----5------------------------| 
 
 
   S  E.  +H     Q    +W 
|----13--(13)-------|--------*| 
|----10--(10)-------|--------*| 
|-10----------------|--------*| 
|-------------------|--------*| 
|-------------------|--------*| 
|----------------1--|-(1)----*| 
 
 
 
 

	  

Full key step upFull key step up
Half key step upHalf key step up
Half key step downHalf key step down
Full key step downFull key step down
Search Paypal
auto scroll beats size up size down change color hide chords drawings
tab show chords e-chords YouTube Clip e-chords hide all tabs e-chords go to top tab