Hellhammer

Reaper

Hellhammer

tabs

by  PAULANTUNES

save to print version add songbook text version e-mail correct tuner
chordsukulelecavacokeyboardtabbassdrumsharmonicaflute Guitar Pro
close

there isn't a video lesson for this song

chords

Reaper

	  		


e|---------------------------------| 
B|---------------------------------| 
G|---------------------------------| 
D|---------------------------------| 
A|---------------------------------| 
E|0h2p0h2p0h2p0h2p0h2p0h2p0h2p0h2~~| 



e|---------------------------------| 
B|---------------------------------| 
G|---------------------------------| 
D|---------------------------------| 
A|---4----6-5----4----6-5----------| 
E|00-2-00-4-3-00-2-00-----6-5------| 


e|---------------------------------| 
B|---------------------------------| 
G|---------------------------------| 
D|---------------------------------| 
A|2--2--777777-7-6-777777-7-6------| 
E|0--0--555555-5-4-555555-5-4------| 
		  

See also:

tabs Deep Purple - Smoke On The Water (Intro + solo 01) tabs Deep Purple - Perfect Strangers tabs Deep Purple - Smoke on the water (ver. 3) tabs Ira! - Eu Quero Sempre Mais (ver. 2) tabs Deep Purple - Fireball (ver. 2) tabs Deep Purple - Squished Bananas Dave&cammey
e-chords

Other versions:

tabs Hellhammer - Reaper tabs Muse - Reapers tabs Muse - Reapers (live)
auto scroll beats size up size down change color hide chords drawings
tab show chords e-chords YouTube Clip e-chords hide all tabs e-chords go to top tab

share with facebook