Hari Mata Hari

Lejla Tab

Hari Mata Hari

Difficulty: nolevelnolevel

by tercmoraes

tuner correct add songbook print version text version save to e-mail
chordsukulelecavacokeyboardtabbassdrumsharmonicsflute Guitar Pro
close

there isn't a video lesson for this song

request
chords

Lejla

  		HARI MATA HARI - LEJLA 
Tabbed by: WizKey 

Intro 

e|---------------------------------------------------------------------------| 
B|---------------------------------------------------------------------------| 
G|7/9--------7/9-------------------------------------------------------------| 
D|----9-7~-------9-7~---5-5-5/7-5-4-2-----2/4--2~----------------------------|2x 
A|------------------------------------3/5------------------------------------| 
E|---------------------------------------------------------------------------| 

e|---------------------------------------------------------------------------| 
B|---------------------------------------------------------------------------| 
G|---------------------------------------------------------------------------| 
D|---4-2h4-4b-4-2h4-4/5--5-4-5-5/7-5-4br2-----4~-----------------------------|2x 
A|-2--------------------------------------4/6--------------------------------| 
E|---------------------------------------------------------------------------| 


verse 1 

e|---------------------------------------------------------------------------| 
B|---------------------------------------------------------------------------| 
G|---------------------------------------------------------------------------| 
D|---------9----9----10-9-9~--/7-9-9h10-9-7/5-4h5-5/7---3/5--5/7--7/10-9~----| 
A|-5/10-10---10---10---------------------------------------------------------| 
E|---------------------------------------------------------------------------| 

e|---------------------------------------------------------------------------| 
B|---------------------------------------------------------------------------| 
G|---------------------------------------------------------------------------| 
D|-10-9-4-5-7~-5-4~--5-4-2t0-2~----------------------------------------------| 
A|---------------------------------------------------------------------------| 
E|---------------------------------------------------------------------------| 
   then comes Intro again and then:  


e|---------------------------------------------------------------------------| 
B|---------------------------------------------------------------------------| 
G|-9-9-9-9-7-5/7--7/9~--9~-9-9-11-12-11-9-9~-r7-5---9-9-9-9-7-5/7--7/9~--9~--| 
D|---------------------------------------------------------------------------| 
A|---------------------------------------------------------------------------| 
E|---------------------------------------------------------------------------| 

e|---------------------------------------------------------------------------| 
B|---------------------------------------------------------------------------| 
G|11-12-12/14-12-11-9-9~-5-4~------------------------------------------------| 
D|-----------------------------5/10-9-4-5-7~-5-4~--5-4-2t0-2~----------------| 
A|---------------------------------------------------------------------------| 
E|---------------------------------------------------------------------------| 


Chorus 

e|---------------------------------------------------------------------------| 
B|---------------------------------------------------------------------------| 
G|-9/11-------------9-11-11--------------------------------------------------| 
D|------11-9~--9h11---------11-9~---7-7h9-7-6-4-2-4/6-4~---------------------|2x 
A|---------------------------------------------------------------------------| 
E|---------------------------------------------------------------------------| 

e|---------------------------------------------------------------------------| 
B|---------------------------------------------------------------------------| 
G|-9/11-------------9-11-11----------------------6-6~---9/11-9---------------| 
D|------11-9~--9h11---------11-9~--6-7-6-7-6-7-9---------------11~-----------| 
A|---------------------------------------------------------------------------| 
E|---------------------------------------------------------------------------| 

e|---------------------------------------------------------------------------| 
B|---------------------------------------------------------------------------| 
G|-9/11-------------9-11-11--------------------------------------------------| 
D|------11-9~--9h11---------11-9~---7-7h9-7-6-4-2-4/6-4~---------------------|2x 
A|---------------------------------------------------------------------------| 
E|---------------------------------------------------------------------------| 

e|---------------------------------------------------------------------------| 
B|---------------------------------------------------------------------------| 
G|---------------------------------------------------------------------------| 
D|-7-7r6-7-9-7-6------9/11--11~-11~------------------------------------------| 
A|---------------7~----------------------------------------------------------| 
E|---------------------------------------------------------------------------| 


************************************ 

| h   Hammer-on 
| r   Release 
| t   Tapping 
| b   Bend 
| br  Bend release 
| /   Slide up 

************************************ 
	  

Search Paypal
auto scroll beats size up size down change color hide chords drawings
tab show chords e-chords YouTube Clip e-chords hide all tabs e-chords go to top tab

share with facebook