Hammerfall

Imperial

Hammerfall

tabs Expert expert

by  BRUNO''W

save to print version add songbook text version e-mail correct tuner
chordsukulelecavacokeyboardtabbassdrumsharmonicaflute Guitar Pro
close

there isn't a video lesson for this song

chords

Imperial

	  		Imperial-Hammerfall 
Pra matar o tempo eh uma otima tablatura!!! ^^ 
 
Parte I: (0:00 - 0:24) 
===================== 
 
d#:-1---0------------------------------------------ 
A#:---------3-------------------------------------- 
F#:-------------5-----4-2---1---2---4---2---4---5-- 
C#:-0---------------------------------------------- 
G#:-------------0-----------------------0---------- 
D#:-------------------------0---------------------- 
 
d#:-1---0------------------------------------------ 
A#:---------3-------------------------------------- 
F#:-------------5-----4-2---4---5---1---2---------- 
C#:-0---------------------------------------------- 
G#:-------------0-----------------------0---------- 
D#:-------------------------0---------------------- 
 
d#:-1---0------------------------------------------ 
A#:---------3-------------------------------------- 
F#:-------------5-----4-2---1---2---4---2---4---5-- 
C#:-0---------------------------------------------- 
G#:-------------0-----------------------0---------- 
D#:-------------------------0---------------------- 
 
d#:-1---0------------------------------------------ 
A#:---------3-------------------------------------- 
F#:-------------5-----4-2---4---5---4---2---------- 
C#:-0---------------------------------------------- 
G#:-------------0-----------------------0---------- 
D#:-------------------------0---------------------- 
 
 
 
Parte II: (0:25 - 0:35) 
====================== 
 
d#:-5---3-------------------5---3------------------ 
A#:---------6---5-------------------6---5---------- 
F#:------------------------------------------------ 
C#:-0-----------------------0---------------------- 
G#:-------------0-----------------------0---------- 
D#:------------------------------------------------ 
 
d#:---------------------4---5---------------------- 
A#:-4-----------5---5------------------------------ 
F#:-----5---4-------------------------------------- 
C#:------------------------------------------------ 
G#:-2-----------------------0---------------------- 
D#:-------------0---------------------------------- 
 
 
 
Parte III: (0:36 - 1:01) 
======================= 
 
d#:------------------------------------------------ 
A#:-0---1---3---3-----1-0---1---3---1---0---------- 
F#:-----------------------------------------2---0-- 
C#:------------------------------------------------ 
G#:-------------0-----------3---------------------- 
D#:-3-----------------------------------3---------- 
 
d#:------------------------------------------------ 
A#:-------0-1---1---0---1---3---1---0-------------- 
F#:-----2-------------------------------2---------- 
C#:------------------------------------------------ 
G#:-------------------------0-----------0---------- 
D#:-1-----------3---------------------------------- 
 
d#:------------------------------------------------ 
A#:-0---1---3---3-----1-0---1---3---1---0---------- 
F#:-----------------------------------------2---0-- 
C#:------------------------------------------------ 
G#:-------------0-----------3---------------------- 
D#:-3-----------------------------------3---------- 
 
d#:-----------------------------0------------------ 
A#:-------0-1---------0-1---0---------------------- 
F#:-----2-----------2---------------1---2---------- 
C#:------------------------------------------------ 
G#:-0-----------------------------------0---------- 
D#:-------------1-----------3---0---0-------------- 
 
 
 
Parte IV: (1:02 - 1:25) 
====================== 
 
Mesma da parte I 
 
 
 
Parte V: (1:26 - 1:37) 
===================== 
 
Mesma da parte II 
 
 
 
Parte VI: (1:38 - 2:07) 
====================== 
 
Mesma da parte  III, mas toque o finalzinho dela  duas vezes 
 
 
 
Final: (2:08 - Fim) 
======================== 
 
d#:-5---3-------------------5---3------------------ 
A#:---------6---5-------------------6---5---------- 
F#:------------------------------------------------ 
C#:-0-----------------------0---------------------- 
G#:-------------0-----------------------0---------- 
D#:------------------------------------------------ 
 
d#:--------------------------4----------5---------- 
A#:-4-----------5-----5-----------------5---------- 
F#:-----5---4---------------------------5---------- 
C#:-------------------------------------7---------- 
G#:-2-----------------------------------7---------- 
D#:-------------0-----------------------5---------- 
 
 

		  

See also:

tabs Hammerfall - At The End Of The Rainbow tabs Hammerfall - Blood Bound(Solo) tabs Zonaria - Image Of Myself tabs Dream Evil - Love Is Blind tabs Amaranthe - Call Out My Name tabs Witchcraft - Remembered
e-chords

Other versions:

tabs Hammerfall - Imperial
auto scroll beats size up size down change color hide chords drawings
tab show chords e-chords YouTube Clip e-chords hide all tabs e-chords go to top tab

share