Grails

Acid Rain

Grails

tabs

by  UBIRBOMFIM

save to print version add songbook text version e-mail correct tuner
chordsukulelecavacokeyboardtabbassdrumsharmonicaflute Guitar Pro
close

there isn't a video lesson for this song

chords

Acid Rain

	  		


INTRO 0:00-1:21 

takes a while, then the guitar starts: 

     e|-----------------------------------(4)------4---------------------------| 
     B|------2-------2-------2-------2-------5-------5--4-----4---4qb----------| 
     G|--------3-------3-------3-------3-------6----------------5--------4-----|   
gt.1 D|--4p3-----4p3-----4p3-----4p3-----7-------7----------6------------5-----|  \ 
     A|------------------------------------------------------------------------|   \ 
     E|------------------------------------------------------------------------|    \ 
                                                                                      x2 (second time, F#maj7 
         F#maj7                          Amaj7          G#maj7           Gmaj7      /     without slide-up) 
     e|------------------------------------------------------------------------|   / 
     B|-/11--------------------------11-/14----------14-13---------------12----|  / 
     G|-/10--------------------------10-/13----------13-12---------------11----| 
gt.2 D|-/11--------------------------11-/14----------14-13---------------12----| 
     A|-/9---------------------------9--/12----------12-11---------------10----| 
     E|------------------------------------------------------------------------| 
_____________________________________________________________________________________ 

     e|----------------------------------(4)-----------4----------------------------| 
     B|-----2-------2-------2-------2-------5-------------5--4-----4----------------| 
     G|-------3-------3-------3-------3-------6----------------------5--------------|   
gt.1 D|-4p3-----4p3-----4p3-----4p3-----7-----------7------------6------------------|   
     A|-----------------------------------------------------------------------------|    
     E|-----------------------------------------------------------------------------|     
                                                                                       
        F#maj7                          Amaj7                G#maj7                  
     e|-----------------------------------------------------------------------------|    
     B|-11--------------------------11-/14----------------14-13---------------------|   
     G|-10--------------------------10-/13----------------13-12---------------------| 
gt.2 D|-11--------------------------11-/14----------------14-13---------------------| 
     A|-9---------------------------9--/12----------------12-11---------------------| 
     E|-----------------------------------------------------------------------------| 

     e|------------------------66-6-6\2-2-----16\14/16\12-12------------------------| 
     B|-----------------------------------------------------------------------------| 
     G|-------------3br-------------------------------------------------------------| 
gt.3 D|-----------------------------------------------------------------------------| 
     A|-----------------------------------------------------------------------------| 
     E|-----------------------------------------------------------------------------| 
_____________________________________________________________________________________ 

     e|-----------------------------------------------------------------------------| 
     B|-------2-------2-------2-------2-----5---5---5---5---5---5---5---------------| 
     G|---------3-------3-------3-------3-------------------------------------------|   
gt.1 D|-4--p3-----4p3-----4p3-----4p3-----6---6---6---6---6---6---6-----------------|   
     A|-----------------------------------------------------------------------------|    
     E|-----------------------------------------------------------------------------|     
                                                                                       
        F#maj7                            Amaj7           G#maj7                     
     e|-----------------------------------------------------------------------------|    
     B|-11----------------------------11-/14----------14--13------------------------|   
     G|-10----------------------------10-/13----------13--12------------------------| 
gt.2 D|-11----------------------------11-/14----------14--13------------------------| 
     A|-9-----------------------------9--/12----------12--11------------------------| 
     E|-----------------------------------------------------------------------------| 

     e|-6\4/7---------------------18--18--16--14~-14~-14~-14~-14~-14~---------------| 
     B|-----------------------------------------------------------------------------| 
     G|-----------------------------------------------------------------------------| 
gt.3 D|-----------------------------------------------------------------------------| 
     A|-----------------------------------------------------------------------------| 
     E|-----------------------------------------------------------------------------| 


Chorus 1:22-1:48 

gt.1    Bmaj7             D#m 

     e|-----------------------------------------------------------| 
     B|----------------------------7--h9p7------------------------| 
     G|-----------------------------------8--h11p8\6--h8p6---6----| 
gt.2 D|---------------------------------------------------8-------| 
     A|-----------------------------------------------------------| 
     E|-----------------------------------------------------------| 

     e|-18---18---18---18\13--18---18--------------18--------18---| 
     B|-----------------------------------------------------------| 
     G|-----------------------------------------------------------| 
gt.3 D|-----------------------------------------------------------| 
     A|-----------------------------------------------------------| 
     E|-----------------------------------------------------------| 
___________________________________________________________________ 

gt.1    Amaj7             C#m 
  
     e|-----------------------------------------------------------| 
     B|----------------------------5--h7p5------------------------| 
     G|-----------------------------------6--h9p6\4--h6p4-----4---| 
gt.2 D|---------------------------------------------------6-------| 
     A|-----------------------------------------------------------| 
     E|-----------------------------------------------------------| 

     e|-----------------------------------------------------------| 
     B|-16--/17--/19--\16/17--------------------------------------| 
     G|-----------------------------------------------------------| 
gt.3 D|-----------------------------------------------------------| 
     A|-----------------------------------------------------------| 
     E|-----------------------------------------------------------| 
___________________________________________________________________ 

gt.1    Bmaj7             D#m 

     e|-----------------------------------------------------------| 
     B|----------------------------7--h9p7------------------------| 
     G|-----------------------------------8--h11p8\6--h8p6---6----| 
gt.2 D|---------------------------------------------------8-------| 
     A|-----------------------------------------------------------| 
     E|-----------------------------------------------------------| 

     e|-18---18---18---18\13--18---18--------------18--------18---| 
     B|-----------------------------------------------------------| 
     G|-----------------------------------------------------------| 
gt.3 D|-----------------------------------------------------------| 
     A|-----------------------------------------------------------| 
     E|-----------------------------------------------------------| 
___________________________________________________________________ 

gt.1    Amaj7             C#m 
  
     e|-----------------------------------------------------------| 
     B|----------------------------------4------------------------| 
     G|-----------------------------------------------------------| 
gt.2 D|-----------------------------------------------------------| 
     A|-----------------------------------------------------------| 
     E|-----------------------------------------------------------| 

     e|----------------16/21--------------------------------------| 
     B|-16--/17--/19----------------------------------------------| 
     G|-----------------------------------------------------------| 
gt.3 D|-----------------------------------------------------------| 
     A|-----------------------------------------------------------| 
     E|-----------------------------------------------------------| 


POST-Chorus 1:49-2:26 

(a lot of noise, drum continues) 

     e|-9-9/11--| 
     B|---------| 
     G|---------| 
gt.2 D|---------| 
     A|---------| 
     E|---------| 
      

verse 2:27-3:29 

        F#maj7                                                          Bmaj7 

     e|-----1-------1-------1-------1-------1---------1---------1---------1---2-----------------------| 
     B|-----2-2-----2-2-----2-2-----2-2-----2-2-------2-2-------2-2-------2---4-----------------------| 
gt.1 G|-------3-------3-------3-------3-------3---------3---------3-----------3-----------------------| 
     D|-----------------------------------------------------------------------4-----------------------| 
     A|-----------------------------------------------------------------------2-----------------------| 
     E|-1-2-----1-2-----1-2-----1-2-----1-2-------1-2-------1-2-------1-2-----------------------------| 

     e|----------------------------------------10\9------10\9------10\9---------------6-----------6---| 
     B|-10hb-----------------------------------12\11-----12\11-----12\11----------7-9---9-7---7/9-----| 
     G|-----------------------------------------------------------------------------------------------| 
gt.2 D|-----------------------------------------------------------------------------------------------| 
     A|-----------------------------------------------------------------------------------------------| 
     E|-----------------------------------------------------------------------------------------------| 

_______________________________________________________________________________________________________ 

        F#maj7                                                          Bmaj7 

     e|-----1-------1-------1-------1-------1-------1-------1-------1---2-----------------------------| 
     B|-----2-2-----2-2-----2-2-----2-2-----2-2-----2-2-----2-2-----2---4-----------------------------| 
gt.1 G|-------3-------3-------3-------3-------3-------3-------3---------3-----------------------------| 
     D|-----------------------------------------------------------------4-----------------------------| 
     A|-----------------------------------------------------------------2-----------------------------| 
     E|-1-2-----1-2-----1-2-----1-2-----1-2-----1-2-----1-2-----1-2-----------------------------------| 

     e|---------------------------------------------4----------------------------6-9-6-------6--------| 
     B|-6hb---------------------6hb-6-7-6hb-----------5----------------------7-9---9-7---7/9----------| 
     G|-----------------------------------------------6-----------------------------------------------| 
gt.2 D|-----------------------------------------------------------------------------------------------| 
     A|-----------------------------------------------------------------------------------------------| 
     E|-----------------------------------------------------------------------------------------------| 

     e|-------------------------------------------------------------13-\9-----------------------------| 
     B|-----------------------------------------------------------------------------------------------| 
     G|-----------------------------------------------------------------------------------------------| 
gt.3 D|-----------------------------------------------------------------------------------------------| 
     A|-----------------------------------------------------------------------------------------------| 
     E|-----------------------------------------------------------------------------------------------| 

_______________________________________________________________________________________________________ 

        F#maj7                                                          Bmaj7 

     e|-------1-------1-------1-------1-------1---------1---------1-------1---2-----------------------| 
     B|-------2-2-----2-2-----2-2-----2-2-----2-2-------2-2-------2-2-----2---4-----------------------| 
gt.1 G|---------3-------3-------3-------3-------3---------3---------3---------3-----------------------| 
     D|-----------------------------------------------------------------------4-----------------------| 
     A|-----------------------------------------------------------------------2-----------------------| 
     E|-1---2-----1-2-----1-2-----1-2-----1-2-------1-2-------1-2-----1-2-----------------------------| 

     e|-6/9\6-----------6\2-------------2--------10\9------10\9-----------------------6-----------6---| 
     B|------------------------------------------12\11-----12\11------------------7-9---9-7---7/9-----| 
     G|-----------------------------------------------------------------------------------------------| 
gt.2 D|-----------------------------------------------------------------------------------------------| 
     A|-----------------------------------------------------------------------------------------------| 
     E|-----------------------------------------------------------------------------------------------| 

     e|-------------------------------------------------------------------13-\9-----------------------| 
     B|-----------------------------------------------------------------------------------------------| 
     G|-----------------------------------------------------------------------------------------------| 
gt.3 D|-----------------------------------------------------------------------------------------------| 
     A|-----------------------------------------------------------------------------------------------| 
     E|-----------------------------------------------------------------------------------------------| 

_______________________________________________________________________________________________________ 

        F#maj7                                                           

     e|-----1-------1-------1---------| 
     B|-----2-2-----2-2-----2-2-------| 
gt.1 G|-------3-------3-------3-------| 
     D|-------------------------------| 
     A|-------------------------------| 
     E|-1-2-----1-2-----1-2-----1-2---| 

     e|-------------4-----------------| 
     B|-6hb---------6-446-------------| 
     G|-------------------------------| 
gt.2 D|-------------------------------| 
     A|-------------------------------| 
     E|-------------------------------| 


BREAK 3:30-3:52 

        Amaj7        G#maj7         Gmaj7 

     e|-11hb---------11-------------10-----------------------| 
     B|------------------------------------------------------| 
     G|------------------------------------------------------| 
gt.3 D|------------------------------------------------------| 
     A|------------------------------------------------------| 
     E|------------------------------------------------------| 

- drum riff. and then: 


Chorus 3:53-5:29 

gt.1    Bmaj7             D#m                                Amaj7             C#m                       
                                                                                                              
     e|-----------------------------------11------------------------------------------------9--------------|| 
     B|-----------------------------11-14----11-14-------------------------------------9-12---9-12---------|| 
     G|-----------------------11-13----------------13-11--------------------------9-11-------------11-9----|| 
gt.2 D|--------------------------------------------------13---------------------------------------------11-|| 
     A|----------------------------------------------------------------------------------------------------|| 
     E|----------------------------------------------------------------------------------------------------|| 
                                                                                                           x2 
     e|-18--18--18--18\11-18--18----------18----------18-----11hb--1112-11-9\7h9---------------------------|| 
     B|----------------------------------------------------------------------------------------------------|| 
     G|----------------------------------------------------------------------------------------------------|| 
gt.3 D|----------------------------------------------------------------------------------------------------|| 
     A|----------------------------------------------------------------------------------------------------|| 
     E|----------------------------------------------------------------------------------------------------|| 
____________________________________________________________________________________________________________ 

gt.1    Bmaj7             D#m                                Amaj7             C#m                       
                                                                                                              
     e|-----------------------------------11------------------------------------------------9--------------| 
     B|-----------------------------11-14----11-14-------------------------------------9-12---9-12---------|  
     G|-----------------------11-13----------------13-11--------------------------9-11-------------11-9----|  
gt.2 D|--------------------------------------------------13---------------------------------------------11-|  
     A|----------------------------------------------------------------------------------------------------|  
     E|----------------------------------------------------------------------------------------------------|  
                                                                                                              
     e|-18--18--18--18\11-18--18----------18----------18---------------------------------------------------|  
     B|----------------------------------------------------------------------------------------------------| 
     G|----------------------------------------------------------------------------------------------------| 
gt.3 D|----------------------------------------------------------------------------------------------------| 
     A|----------------------------------------------------------------------------------------------------| 
     E|----------------------------------------------------------------------------------------------------|  
____________________________________________________________________________________________________________ 

gt.1    Bmaj7             D#m 

     e|----------------------------6-h9p6-------------------------| 
     B|----------------------------------7-h9p7-------------------| 
     G|----------------------------------------6-h8p6---6---------| 
gt.2 D|----------------------------------------------8------------| 
     A|-----------------------------------------------------------| 
     E|-----------------------------------------------------------| 

     e|-18---18---18---18\13--18---18----------18-------18--------| 
     B|-----------------------------------------------------------| 
     G|-----------------------------------------------------------| 
gt.3 D|-----------------------------------------------------------| 
     A|-----------------------------------------------------------| 
     E|-----------------------------------------------------------| 
____________________________________________________________________________________________________ 

gt.1    Amaj7             C#m 
                                                                                     (play softly)               
     e|-------------------------4--h7p4-----------------------4--h7p4-----------------------4-------| 
     B|---------------------------------4--h7p4------4-5--------------4--h7p4----4----4-5-7---7-5---| 
     G|-----------------------------------------4h6p4-------------------------4-6--/6-------------6-| 
gt.2 D|---------------------------------------------------------------------------------------------| 
     A|---------------------------------------------------------------------------------------------| 
     E|---------------------------------------------------------------------------------------------| 

     e|-11hb--1112-11-9\7h9-------------------------------------------------------------------------| 
     B|---------------------------------------------------------------------------------------------| 
     G|---------------------------------------------------------------------------------------------| 
gt.3 D|---------------------------------------------------------------------------------------------| 
     A|---------------------------------------------------------------------------------------------| 
     E|---------------------------------------------------------------------------------------------| 


OUTRO 5:30-end 

A   G#  \ x7 
F#      / 

   G        A         F# 

e|-----------------------------| 
B|-0---------------------------| 
G|-4--------6---------3--------|     x2 
D|-5--------7---------4--------| 
A|-5--------7---------4--------| 
E|-3--------5---------2--------| 



_______________________________________________________________________________________________________ 

qb = quarter-bend 
hb = half-bend 
h  = hammer-on 
p  = pull-off 
~  = tremolo 
/  = slide up 
\  = slide down 
		  

Full key step upFull key step up
Half key step upHalf key step up
Half key step downHalf key step down
Full key step downFull key step down
hide glossary

See also:

tabs Deep Purple - Strange kind of woman tabs Deep Purple - Smoke On The Water tabs Deep Purple - Time To Kill tabs Albert Hammond Jr - Gfc tabs Deep Purple - Soldier Of Fortune tabs Ira! - Nucleo De Base
e-chords

Other versions:

tabs Angra - Acid Rain tabs Silverchair - Acid Rain tabs Tumbleweed - Acid Rain tabs Dream Theater - Acid Rain tabs Grails - Acid Rain tabs Angra - Acid Rain (solo)
auto scroll beats size up size down change color hide chords drawings
tab show chords e-chords YouTube Clip e-chords hide all tabs e-chords go to top tab

share