Good Charlotte

home > Good Charlotte

Motivation Proclamation Tab

Good Charlotte

Difficulty: BeginnerBeginner

tuner correct add songbook print version text version save to e-mail
chordsukulelecavacokeyboardtabbassdrumsharmonicsflute Guitar Pro
chords

Motivation Proclamation

  		 1.Verso 1

G5 Csus2 Bm Csus2  
e----3----3----3-3--3-----3----3----3-3--3----------------------------- 
B----3----3----3-3--3-----3----3----3-3--3----------------------------- 
G----0----0----0-0--0-----0----0----0-0--0----------------------------- 
D----0----0----x-x--x-----2----2----x-x--x----------------------------- 3x 
A----x----x----3-3--3-----2----2----3-3--3----------------------------- 
E----3----3----x-x--x-----0----0----x-x--x----------------------------- 
"Spend your lazy, endless crazy days inside my head" 

2.Ponte e Final

Dsus4 Csus2 
E----3----3---3--3-3--3--3----3----3---3--3-3--3--3-------------------- 
B----3----3---3--3-3--3--3----3----3---3--3-3--3--3-------------------- 
G----2----2---2--2-2--2--2----0----0---0--0-0--0--0-------------------- 
D----0----0---0--0-0--0--0----x----x---x--x-x--x--x-------------------- 
A----x----x---x--x-x--x--x----3----3---3--3-3--3--3-------------------- 
E----x----x---x--x-x--x--x----x----x---x--x-x--x--x-------------------- 
"Cause I never said..."

Am Dsus4  
E----0----0----0-0--0--0----3----3----3-3--3--3--------------------- 
B----1----1----1-1--1--1----3----3----3-3--3--3--------------------- 
G----2----2----2-2--2--2----2----2----2-2--2--2--------------------- 
D----2----2----2-2--2--2----0----0----0-0--0--0--------------------- 
A----0----0----0-0--0--0----x----x----x-x--x--x--------------------- 
E----x----x----x-x--x--x----x----x----x-x--x--x--------------------- 
"And I never said..."

Csus2 Am 
E----3----3----3-3--3--3----0----0----0-0--0--0------------------ 
B----3----3----3-3--3--3----1----1----1-1--1--1------------------ 
G----0----0----0-0--0--0----2----2----2-2--2--2------------------ 
D----x----x----x-x--x--x----2----2----2-2--2--2------------------ 
A----3----3----3-3--3--3----0----0----0-0--0--0------------------ 
E----x----x----x-x--x--x----x----x----x-x--x--x------------------- 
"...we would live to see..."
Dsus4 
E----3--3--3--3--3--3--3--3--3--3--3--3--3--3----------------------- 
B----3--3--3--3--3--3--3--3--3--3--3--3--3--3---quarter----------- 
G----2--2--2--2--2--2--2--2--2--2--2--2--2--2-----rest------------- 
D----0--0--0--0--0--0--0--0--0--0--0--0--0--0---------------------- 
A----x--x--x--x--x--x--x--x--x--x--x--x--x--x----------------------- 
E----x--x--x--x--x--x--x--x--x--x--x--x--x--x----------------------- 
"...another day" 

3.Refrão
  
G5 Csus2  
E----3--3-------3--3--3--3---------3--3-------------------- 
B----3--3--8th--3--3--3--3--8th----3--3-------------------- 
G----0--0-rest--0--0--0--0--rest---0--0-------------------- 
D----0--0-------0--0--x-- x -------x--x-------------------- 
A----x--x-------x--x--3--3---------3--3-------------------- 
E----3--3-------3--3--x--x --------x--x--------------------- 
"Motivate Me..."

D5 Csus2 G/B A7sus4  
E----3--3--------3--3----3-3-3--3-3-3------------------------ 
B----3--3--8th---3--3----3-3-3--3-3-3------------------------ 
G----2--2--rest--2--2----0-0-0--0-0-0------------------------ 
D----0--0--------0--0----x-x-x--x-x-0-----------------------2x 
A----x--x--------x--x----3-3-3--3-2-0----------------------- 
E----x--x--------x--x----x-x-x--x-x-x------------------------ 
"...I want good thoughts inside of my head" 

4.Verso 2

G5 Csus2 D  
E--3--3--3--3--3--3--3--3---2--2--2--2--3--3--3--3--------- 
B--3--3--3--3--3--3--3--3---3--3--3--3--3--3--3--3---------- 
G--0--0--0--0--0--0--0--0---2--2--2--2--0--0--0--0---------- 
D--0--0--0--0--x--x--x--x---0--0--0--0--x--x--x--x---------- 
A--x--x--x--x--3--3--3--3---x--x--x--x--3--3--3--3---------- 
E--3--3--3--3--x--x--x--x---x--x--x--x--x--x--x--x---------- 
"When I fall down would you come around and pick me right up off
the ground" 

5.Final

"Cause everything it'll be ok,
 You know we're gonna live to see another day,
 Yeah...yeah... 
 Motivate me...yeah,
 Motivate me...yeah.

ORDEM:
VERSO 1
PONTE
REFRÃO
VERSO 2
PONTE
REFRÃO
FINAL
	  

Full key step upFull key step up
Half key step upHalf key step up
Half key step downHalf key step down
Full key step downFull key step down
Search Paypal
auto scroll beats size up size down change color hide chords drawings
tab show chords e-chords YouTube Clip e-chords hide all tabs e-chords go to top tab