Ben Harper

Sexual Healing

Ben Harper

tabs Expert expert

save to print version add songbook text version e-mail correct tuner
chordsukulelecavacokeyboardtabbassdrumsharmonicaflute Guitar Pro
close

there isn't a video lesson for this song

chords

Sexual Healing

Year: 2001 - Album: Live from Mars

	  		e ------------------------------
b ------------------------------
g ------------------------------
d --------0--2--0---------------
a ---0t3-----------3--0---------
E -----------------------3------

Notas:

G, Am, F, C 
C ,Em

e -------------------------------------
b -------------------------------------
g -------------------------------------
d ---0--0-0--2---2-2--3---3-3--4-------
a --------------------------------3----
E -------------------------------------

Pronto, agora eh soh escuta a música e tirar certinho!!!

Julian Andrew Hoche ([email protected])
		  

Full key step upFull key step up
Half key step upHalf key step up
Half key step downHalf key step down
Full key step downFull key step down
auto scroll beats size up size down change color hide chords drawings
tab show chords e-chords YouTube Clip e-chords hide all tabs e-chords go to top tab

share