Gabriel Yared

Unfeeling Kiss

Gabriel Yared

tabs

save to print version add songbook text version e-mail correct tuner
chordsukulelecavacokeyboardtabbassdrumsharmonicaflute Guitar Pro
close

there isn't a video lesson for this song

chords

Unfeeling Kiss

	  		
****************************************** 
*   h  hammer on        ~~~ let ring     * 
*   p  pull off         <#> hyperbolic   * 
*   /  slide up         (#) optional     * 
*   \  slide down                        * 
****************************************** 
 
I tabbed this song for two guitars.  I put the complete lead guitar 
tabs first and I put the backup guitar tabs last.  This song should 
be played with two classical guitars.  Enjoy! 
 
*********************************************************************** 
Guitar 1 {Come in on Guitar 2 5th Sequence} 
 
Repeat 2X 
E----------------------------------------------| 
B----------12------------9---------------------| 
G------9----------------------------------11~~~| 
D9/11--------------11---------------9h11------| 
A-------12---11/12----9--------9h12-----------| 
E--------------------------12------------------| 
 
 
E---------------------------------------------------------------------| 
B---------------9-10~~~--10-10----------------------10-10-------------| 
G-9----------9-----------------12-11------11--------------12-11-------| 
D---11~~~-11-------------------------9h12----11~~~--------------9h12--| 
A---------------------------------------------------------------------| 
E---------------------------------------------------------------------| 
 
 
E---------------------------------------------------------------------| 
B-----------------------------------------------------------------9---| 
G--11-9---------------9----9-----------------9----9---9-----9---9-----| 
D-------12~~~------12---12---12-12-12~~~--12---12-------9h11-11-------| 
A---------------------------------------------------------------------| 
E---------------------------------------------------------------------| 
 
 
E--------------------------------------------------------------0------| 
B-10~~~--10-10------------------------10-10---------------------------| 
G--------------12-11------11----------------12-11-----------11---11-11| 
D--------------------9h12----9h11~~~------------(9)-12~~~-------------| 
A---------------------------------------------------------11----------| 
E---------------------------------------------------------------------| 
 
 
E---------------------------------------------------------------------| 
B----------------3~~~--------------------------------------------10/12| 
G-8---8-8-11-8\--2~~~-----9----9----9----------------9----9-----------| 
D----------------3~~~--12---12---12---12-12-12~~~-12---12---12-12-----| 
A----------------2~~~-------------------------------------------------| 
E----------------0~~~-------------------------------------------------| 
 
 
E---------------------------------------------------| 
B-10\-----------------------------------------------| 
G--------9----9----9--------------------------------| 
D-----12---12---12---12-12-12~~~-12-11-9---------9--| 
A---------------------------------------12-9---12---| 
E-------------------------------------------12------| 
 
Repeat 2X 
E-------------------------------------------------------| 
B----------12------------9------------------------------| 
G------9----------------------------------11~~~~~~------| 
D9/11--------------11---------------9h11----(9/11\9)---| 
A-------12---11/12----9--------9h12--------------------| 
E--------------------------12---------------------------| 
 
 
E---------------------------------------------------------------------| 
B---------------9-10~~~--10-10----------------------10-10-------------| 
G-9-9---------9----------------12-11------11--------------12-11-------| 
D----9h11~~-11-----------------------9h12----9h11~~~------------9h12--| 
A---------------------------------------------------------------------| 
E---------------------------------------------------------------------| 
 
E---------------| 
B---------------| 
G(11)----11~~~--| 
D------12-------| 
A----12---------| 
E---------------| 
 
 
*********************************************************************** 
Guitar 2 
 
Repeat 10X 
E----7p0----7p0---0-----| 
B------5------5---5-----| 
G-----------------------| 
D--7------7-----7---7---| 
A--0------0-----0---0---| 
E-----------------------| 
 
Repeat 4X              Repeat 2X             Repeat 2X 
E----------0------|   |--------0~~~-----|   |--------0~~~-----| 
B----0-------0----|   |----0--------0---|   |----0--------0---| 
G------6-------6--|   |------6--------6-|   |------6--------6-| 
D--------7--------|   |--7--------------|   |--5--------------| 
A--0--------------|   |--0--------------|   |-----------------| 
E-----------------|   |-----------------|   |--0--------------| 
 
Repeat 2X             Repeat 2X 
E--------0~~~-----|   |--------0~~~-----| 
B----0--------0---|   |----0--------0---| 
G------6--------6-|   |------6--------6-| 
D--7--------------|   |--5--------------| 
A--0--------------|   |-----------------| 
E-----------------|   |--0--------------| 
 
 
E---------0---------0---------0------------0--------------------------| 
B---0---------2---------3-------3-----3------3------------------------| 
G-----4---------4---------2-------2-----2------2---1---3-3---1~~~-----| 
D-6-----6---4-----4---3-----3-------2-----3--------2---2-2---2~~~-----| 
A--------------------------------------------------2---3-3---2~~~-----| 
E-0---------2--------------------------------------0---0-0---0~~~-----| 
 
Repeat 4X              Repeat 2X             Repeat 2X 
E----------0------|   |--------0~~~-----|   |--------0~~~-----| 
B----0-------0----|   |----0--------0---|   |----0--------0---| 
G------6-------6--|   |------6--------6-|   |------6--------6-| 
D--------7--------|   |--7--------------|   |--5--------------| 
A--0--------------|   |--0--------------|   |-----------------| 
E-----------------|   |-----------------|   |--0--------------| 
 
Repeat 2X              
E--------0~~~-----|   |---------0---------0------------------| 
B----0--------0---|   |---0---------2-------------3~~~-------| 
G------6--------6-|   |-----4---------4-----------2~~~---<5>-| 
D--7--------------|   |-6-----6---4-----4---6\2---3~~~-------| 
A--0--------------|   |---------------------------2~~~-------| 
E-----------------|   |-0---------2---------------0~~~-------| 
 
                                       Repeat 2X 
E---------------------------------|   |------------------------------| 
B---------------------------------|   |------------------------------| 
G-1~~-2-2~~-1~~-2~~-1~~-2-2~~-1~~-|   |------------------------------| 
D-2~~-3-3~~-2~~-3~~-2~~-3-3~~-2~~-|   |-9---7---6---------------7~~~-| 
A2~~-2-2~~-2~~-2~~-2~~-2-2~~-2~~-|   |-------------9---7---7h9------| 
E-0~~-0-0~~-0~~-0~~-0~~-0-0~~-0~~-|   |------------------------------| 
 
Repeat 4X              Repeat 2X 
E--------0~~~-----|   |--------0~~~-----| 
B----0--------0---|   |----0--------0---| 
G------6--------6-|   |------6--------6-| 
D--7--------------|   |--5--------------| 
A--0--------------|   |-----------------| 
E-----------------|   |--0--------------| 
 
Repeat 2X              Repeat 2X 
E--------0~~~-----|   |--------0~~~-----| 
B----0--------0---|   |----0--------0---| 
G------6--------6-|   |------6--------6-| 
D--7--------------|   |--5--------------| 
A--0--------------|   |-----------------| 
E-----------------|   |--0--------------| 

		  

Full key step upFull key step up
Half key step upHalf key step up
Half key step downHalf key step down
Full key step downFull key step down
auto scroll beats size up size down change color hide chords drawings
tab show chords e-chords YouTube Clip e-chords hide all tabs e-chords go to top tab

share