Fuel

Wo Back Down

Fuel

tabs

save to print version add songbook text version e-mail correct tuner
chordsukulelecavacokeyboardtabbassdrumsharmonicaflute Guitar Pro
close

there isn't a video lesson for this song

chords

Wo Back Down

	  		Artist-Fuel 
Song-Won't Back Down 
I think this song is played a whole step down and drop D like most of the album. 
 
Main Riff/Chorus 
D----------------------------------------------------- 
A----------------------------------------------------- 
F----------------------------------------------------- 
C----------------------------------------------------- 
G-1-0-----1-0--------1-0------------------------------ 
C-1-0-----1-0--------1-0----1-0-0--0-1-0-0--0-/-12\--- 
 
Main Riff/Chorus (Continud) 
D------------------------------------------------------------------- 
A------------------------------------------------------------------- 
F------------------------------------------------------------------- 
C-0-0-0-0-10-10--10-10-10-10-10-10-10-10-10-10-5-5-----5-5---------- 
G-0-0-0-0-10-10--8--8--8--8--8--10-10-10-10-10-5-5-x-x-5-5---5-5---- 
C-0-0-0-0-10-10--8--8--8--8--8--10-10-10-10-10-5-5-x-x-5-5---5-5-3-- 
 
Verse 
P.M.................................. 
D---------------------------------------------- 
A--------------------------------------------- 
F--------------------------------------------- 
C--------------------------------------------- 
G--------------------------------------------- 
C--0-12-11-10-9-9-8-8-8-8-3-5-5-6-5-3------ 
 
Pre-Chorus 
D-------------- 
A-------------- 
F-------------- 
C-------------- 
G-------------- 
C-17/slide back 
 
 
Bridge  (lead plays 3rd string notes) (rhythm plays power chord) 
D------------------------------------------------------   
A------------------------------------------------------   
F-10-10-10-10-10-10-5-5-12-12-12-12-------------------- 
C------------------------------------------------------ 
G-8--8--8--8--8--8--3-3-10-10-10-10-------------------- 
C-8--8--8--8--8--8--3-3-10-10-10-10-------------------- 
 
D-------------------------------------------------------------------- 
A-------------------------------------------------------------------- 
F-------------------------------------------------------------------- 
C-------------------------------------------------------------------- 
G-1-0-----1-0-----1-0-----1-0-----1-0--1-0-0-1-0-/10----------------- 
C-1-0-----1-0-----1-0-----1-0-----1-0--1-0-0-1-0-/10---0-0-0-0-10-10- 
 
That's everything to it, it's a pretty easy song 
 

		  

Full key step upFull key step up
Half key step upHalf key step up
Half key step downHalf key step down
Full key step downFull key step down
hide glossary

See also:

tabs Fuel - Sunburn tabs Bush - Everything zen tabs Arctic Monkeys - Knee Socks tabs Tracy Chapman - Give Me One Reason tabs Arctic Monkeys - All My Own Stunts tabs Oasis - She´s Electric
e-chords

Other versions:

tabs Fuel - Wo Back Down
auto scroll beats size up size down change color hide chords drawings
tab show chords e-chords YouTube Clip e-chords hide all tabs e-chords go to top tab

share