Fuel

Untitled

Fuel

tabs

save to print version add songbook text version e-mail correct tuner
chordsukulelecavacokeyboardtabbassdrumsharmonicaflute Guitar Pro
close

there isn't a video lesson for this song

chords

Untitled

	  		Transcribed by: Drew Behringer 
Email: [email protected] 
 
This is in Drop D tuning, and it sounds more right then 
any other tabs I've seen out there.  
 
------------------------------------------------------------------------------ 
--------------------------8--------------------------------------------------- 
--------888888--------8-x----------------------------------------------------- 
-000000-xxxxxx-000000-x-x----------------------------------------------------- 
-000000-666666-000000-6-x----------------------------------------------------- 
-000000--------000000--------------------------------------------------------- 
           VERSE                                                               
 
--5-----5--------------------------------------------------------------------- 
--5-----5-----------3--------------------------------------------------------- 
--7-----6-----------2--------------------------------------------------------- 
--7-----7-----5-----0-----3-----5--------------------------------------------- 
--5-----5-----5-----0-----3-----5--------------------------------------------- 
--------------5-----0-----3-----5--------------------------------------------- 
    CHORUS (only chords, not rythym)                                                        
 
 
Theres a solo too but Im only 15 not a genius so... go to another tab for that. ;) 
 

		  

Full key step upFull key step up
Half key step upHalf key step up
Half key step downHalf key step down
Full key step downFull key step down
hide glossary

See also:

tabs Fuel - Sunburn tabs Bush - Everything zen tabs Arctic Monkeys - Knee Socks tabs Tracy Chapman - Give Me One Reason tabs Arctic Monkeys - All My Own Stunts tabs Oasis - She´s Electric
e-chords

Other versions:

tabs Fuel - Untitled tabs In Extremo - Untitled tabs Pearl Jam - Untitled tabs Silverchair - Untitled tabs The Cure - Untitled tabs Simple Plan - Untitled
auto scroll beats size up size down change color hide chords drawings
tab show chords e-chords YouTube Clip e-chords hide all tabs e-chords go to top tab

share