Fuel

New Thing

Fuel

tabs

save to print version add songbook text version e-mail correct tuner
chordsukulelecavacokeyboardtabbassdrumsharmonicaflute Guitar Pro
close

there isn't a video lesson for this song

chords

New Thing

	  		Tabbed by: Ryan Sanders ([email protected]) 
Date: December 28, 2000 
 
Fuel is my favorite band, they\'re the best!!!  I\'ll tab more of their songs, this is the  
first of many to come. 
 
Drop-D Tuning 
 
INTRO 
E|-------------------------------| 
B|-------------------------------| 
G|-------------------------------| 
D|-7--5-3--10--5---8-88--10--11--| 
A|-7--5-3--10--5---8-88--10--11--| 
D|-7--5-3--10--5---8-88--10--11--| 
 
VERSE (guitar 1) 
E|-------------------------------| 
B|-----------------------------7-| 
G|---5----7---------------5------| 
D|-7---7----------------7---7----| 
A|-------------------------------| 
D|-------------------------------| 
 
VERSE (guitar 2) 
E|-------------------------------| 
B|-------------------------------| 
G|-------------------------------| 
D|-0-0--0000------0-0-0000-3/5\\3-| 
A|-0-0--0000------0-0-0000-3/5\\3-| 
D|-0-0--0000------0-0-0000-3/5\\3-| 
--listen to the song, you\'ll hear where all this goes. 
 
PRECHORUS 
E|-------------------------------| 
B|-------------------------------| 
G|-------------------------------| 
D|-8-88--10--5--8-88--10-11------| 
A|-8-88--10--5--8-88--10-11------| 
D|-8-88--10--5--8-88--10-11------| 
    \"and i don\'t mind if i fall...\" 
 
CHORUS 
E|---------------------------------------| 
B|---------------------------------------| 
G|---------------------------------------| 
D|-0--10-9-7--0--5-7-0--10-9-7--0--5-4-2-| 
A|-0--10-9-7--0--5-7-0--10-9-7--0--5-4-2-| 
D|-0--10-9-7--0--5-7-0--10-9-7--0--5-4-2-| 
    \"i got a new thing...\" 
 
POST-CHORUS 
E|-------------| 
B|-------------| 
G|-------------| 
D|-8-88--10-11-| 
A|-8-88--10-11-| 
D|-8-88--10-11-| 
       \"denial comforts...\" 
 
BRIDGE 
E|--------------------------------| 
B|--------------------------------| 
G|--------------------------------| 
D|-3h0-3h0-0--5-6--3h0-3h0-0--6-5-| 
A|-3h0-3h0-0--5-6--3h0-3h0-0--6-5-| 
D|-3h0-3h0-0--5-6--3h0-3h0-0--6-5-| 
-after he screams \"comfort.. comfort.. comfort.. COOOOOOOM YEAH!\" 
 

		  

See also:

tabs Fuel - Sunburn tabs Bush - Everything zen tabs Arctic Monkeys - Knee Socks tabs Tracy Chapman - Give Me One Reason tabs Arctic Monkeys - All My Own Stunts tabs Oasis - She´s Electric
e-chords

Other versions:

tabs Fuel - New Thing
auto scroll beats size up size down change color hide chords drawings
tab show chords e-chords YouTube Clip e-chords hide all tabs e-chords go to top tab

share