Fuel

Last Time

Fuel

tabs

save to print version add songbook text version e-mail correct tuner
chordsukulelecavacokeyboardtabbassdrumsharmonicaflute Guitar Pro
close

there isn't a video lesson for this song

chords

Last Time

	  		Transcribed by: John Lohmeyer 
Email: [email protected] 
 
this tab is 100%  correct so if you dont think it sounds right then you are play 
ing it wrong 
I tried my best to put the rythem but you should listen to the song to make sure 
 
 
This song is in Drop D tunning 
 
( * ) means palm mute 
( / ) means slide 
( t ) means trill 
 
------------------------------------------------------------------------------ 
------------------------------------------------------------------------------ 
-11--11---11-11-11-11---11--11------------------------------------------------ 
------------------------------------------------------------------------------ 
-9---9----9--9--9--9----9---9------------------------------------------------- 
------------------------------------------------------------------------------ 
 Intro ^ x8                                                                    
 
-0----0----------------------------------------------------------------------- 
-0----10---------------------------------------------------------------------- 
-x----11---------------------------------------------------------------------- 
-11---x----------------------------------------------------------------------- 
-9----9----------------------------------------------------------------------- 
-9----0----------------------------------------------------------------------- 
 Verse ^,but when he says "still i come..." strum it like the intro            
 
------------------------------------------------------------------------------ 
------------------------------------------------------------------------------ 
------------------------------------------------------------------------------ 
------------------------------------------------------------------------------ 
-0-4-4-0-4-4-0-------4-4-0-2-------------------------------------------------- 
-0-4-4-0-4-4-0-4^-4^-4-4-0-2-------------------------------------------------- 
 Chorus ^ x3                                                                   
 
------------------------------------------------------------------------------ 
------------------------------------------------------------------------------ 
------------------------------------------------------------------------------ 
------------------------------------------------------------------------------ 
-----0-4---2-0----0/1/2/5/7--------------------------------------------------- 
-0-4-----------4--0/1/2/5/8--------------------------------------------------- 
 Play^when he says "now, i bleed for you"...then play intro 3 times            
 
------------------------------------------------------------------------------ 
------------------------------------------------------------------------------ 
------------------------------------------------------------------------------ 
-x-x-x-x-x-x-x-x-x-x-x-x-0-0-------------------------------------------------- 
-x-x-x-x-x-x-x-x-x-x-x-x-0-0-------------------------------------------------- 
-x-x-x-x-x-x-x-x-x-x-x-x-0-0-------------------------------------------------- 
 Bridge ^ play a few times...i dont remember how many..then play solo          
 
-7----/8--/9--/10---/12---/14---/----------------------------14--/12----14/--- 
-7----/8--/9--/10---/12---/15---/14--/10---/14---/10---/14--/15--/14----15/--- 
---------------------------------14--/11---/14---/11---/14--/----------------- 
------------------------------------------------------------------------------ 
------------------------------------------------------------------------------ 
------------------------------------------------------------------------------ 
                                                                               
 
-/12----14/12-----14-----/15----16----------/19------------------------------- 
-/14----15/14-----15-----/16----17----------/21------------------------------- 
------------------------------------------------------------------------------ 
------------------------------------------------------------------------------ 
------------------------------------------------------------------------------ 
------------------------------------------------------------------------------ 
                                                                               
 
------------------------------------------------------------------------------ 
------------------------------------------------------------------------------ 
-----6---4-------------------------------------------------------------------- 
-0---4---2-------------------------------------------------------------------- 
-0---4---2-------------------------------------------------------------------- 
-0---4---2-------------------------------------------------------------------- 
 the last chorus ^ x5                                                          
 
------------------------------------------------------------------------------ 
----------------9----9-9/9----7---9---9--7/9--9---10---9---------------------- 
-11--------------------------------------------------------6t-------6---6/---- 
------------------------------------------------------------------------------ 
------------------------------------------------------------------------------ 
------------------------------------------------------------------------------ 
                                                                               
 
------------------------------------------------------------------------------ 
-7/9----/7/9t------9--9--9--9---10---9--9/12t-----12---12----------/9-----7--- 
------------------------------------------------------------13/11------------- 
------------------------------------------------------------------------------ 
------------------------------------------------------------------------------ 
------------------------------------------------------------------------------ 
                                                                               
 
------------------------------------------------------------------------------ 
-9t------9--7/9---9--10---9--------------------7/9/7/9t----9--9--9--9--10/9--- 
------------------------------6t-----6----6/---------------------------------- 
------------------------------------------------------------------------------ 
------------------------------------------------------------------------------ 
------------------------------------------------------------------------------ 
                                                                               
 
-------------------------16/14--16----16-16-16-16-17-16----------------------- 
-9/12t----12-12-12-12/-----------------------------------14t---14-14-14/------ 
------------------------------------------------------------------------------ 
------------------------------------------------------------------------------ 
------------------------------------------------------------------------------ 
------------------------------------------------------------------------------ 
                                                                               
 
-16/14/16---16-16-16-16-17-16-16/19----19/14/16/14/16---16-16-16-16--16--17--- 
------------------------------------------------------------------------------ 
------------------------------------------------------------------------------ 
------------------------------------------------------------------------------ 
------------------------------------------------------------------------------ 
------------------------------------------------------------------------------ 
                                                                               
 
-16-----------16/---------------14-------------------------------------------- 
-----14/---------------------------------------------------------------------- 
------------------------------------------------------------------------------ 
------------------------------------------------------------------------------ 
------------------------------------------------------------------------------ 
------------------------------------------------------------------------------ 
 

		  

Full key step upFull key step up
Half key step upHalf key step up
Half key step downHalf key step down
Full key step downFull key step down
hide glossary

See also:

tabs Blur - Song#2 Correct tabs Oasis - DonīT Go Away tabs Arctic Monkeys - Old Yellow Bricks tabs Arctic Monkeys - Knee Socks tabs Stone Temple Pilots - Sour Girl tabs Jethro Tull - To Cry You A Song
e-chords

Other versions:

tabs Fuel - Last Time
auto scroll beats size up size down change color hide chords drawings
tab show chords e-chords YouTube Clip e-chords hide all tabs e-chords go to top tab

share