Fuel

Down

Fuel

tabs

save to print version add songbook text version e-mail correct tuner
chordsukulelecavacokeyboardtabbassdrumsharmonicaflute Guitar Pro
close

there isn't a video lesson for this song

chords

Down

	  		Tuning:(Drop 1/2 step)(Drop D) 
 
 
Main Riff 
----------------------------- 
----------------------------- 
----------------------------- 
----------------------------- 
--03-333--0-0-3---3-3-5------ 
--03-333--0-0-3---3-3-5------ 
 
Pre-chorus 
----------------------------- 
----------------------------- 
----------------------------- 
----------------------------- 
--0-3-333-0-0-3----0-00------ 
--0-3-333-0-0-3----0-00------ 
 
Chorus(Play pt.1 4 times before moving on.....PLAY FAST!!!) 
Part 1 
----------------------------- 
----------------------------- 
----------------------------- 
----------------------------- 
--0-5/6\5-32-0--5/6\5-32----- 
--0-5/6\6-32-0--5/6\5-32----- 
 
Part 2 
----------------------------- 
----------------------------- 
--3-3-3--33-33-3----2-2-2-22-22----3-3-3-35-55-5---- 
--3-3-3--33-33-3----2-2-2-22-22----3-3-3-35-55-5---- 
--1-1-1--11-11-1----0-0-0-00-00----1-1-1-13-33-3---- 
 
Part 3 
-------------------------------- 
-------------------------------- 
-------------------------------- 
-------------------------------- 
-----------5~-------5~-------------- 
--0-0-0-00-----0-0-0------------------- 
 
Part 4 
 
------------------------------ 
------------------------------ 
--3-3-3-33-33-3----2-22-22----------------- 
--3-3-3-33-33-3----2-22-22-------------- 
--1-1-1-11-11-1----0-00-00----------------- 
------------------------------ 
----------------------------- 
 
AFTER CHORUS JUST GO BACK TO BEGINNING AND REPEAT 
 
This is my first tab so cut me some slack.
 I'm quite sure the notes are right, but if you have a problem with the rythem
 just listen to the osong you can pick it up pretty quick. If you have any
 comments email me at [email protected] 
 

		  

Full key step upFull key step up
Half key step upHalf key step up
Half key step downHalf key step down
Full key step downFull key step down
hide glossary

See also:

tabs Fuel - Sunburn tabs Bush - Everything zen tabs Arctic Monkeys - Knee Socks tabs Tracy Chapman - Give Me One Reason tabs Arctic Monkeys - All My Own Stunts tabs Oasis - She´s Electric
e-chords

Other versions:

tabs 311 - Down tabs Blink 182 - Down tabs Fuel - Down tabs Pearl Jam - Down tabs STP (Stone Temple Pilots) - Down tabs Marian Hill - Down
auto scroll beats size up size down change color hide chords drawings
tab show chords e-chords YouTube Clip e-chords hide all tabs e-chords go to top tab

share