Finch

Worms Of The Universe

Finch

tabs

save to print version add songbook text version e-mail correct tuner
chordsukulelecavacokeyboardtabbassdrumsharmonicaflute Guitar Pro
close

there isn't a video lesson for this song

chords

Worms Of The Universe

	  		Finch 
Worms of the universe 
 
This song is only for Guitar 1. 
 
Drop D tuning 
 
Intro 1: 
|---- 
|---- 
|-5*-     pickscrape a little bit it sounds good. 
|-3*- 
|-3*- 
|-3*- 
 
Intro 2: 
 
|---------------------------------------------------- 
|---------------------------------------------------- 
|---------------------------------------------------- 
|-2-2-2-2-2-2-2-2--3-3-3-3--2-2-2-2--5-5-5-5-5-5-5-5- 
|-2-2-2-2-2-2-2-2--3-3-3-3--2-2-2-2--5-5-5-5-5-5-5-5- 
|-2-2-2-2-2-2-2-2--3-3-3-3--2-2-2-2--5-5-5-5-5-5-5-5- 
 
|---------------------------------------------------------------- 
|---------------------------------------------------------------- 
|---------------------------------------------------------------- 
|-5-5-5-5-5-5-3-3-3-3-2-2-2-2-5-5-5-5-5-5-5-5-3-3-3-3-2-2-2-2---5 
|-5-5-5-5-5-5-3-3-3-3-2-2-2-2-5-5-5-5-5-5-5-5-3-3-3-3-2-2-2-2---5 
|-5-5-5-5-5-5-3-3-3-3-2-2-2-2-5-5-5-5-5-5-5-5-3-3-3-3-2-2-2-2---5 
 
Verse: 
 
|------------------------------5-5-5--- 
|-10-10-10-10-10-10-10-10-10----6---6-- 
|-10-10-10-10-10-10-10-10-10---------6- 
|-8--8--8--8--8--8--8--8--8------------ 
|-8--8--8--8--8--8--8--8--8------------ 
|-8--8--8--8--8--8--8--8--8------------ 
 
|--------------------------5--5-5-----5----5-5-----5-- 
|-10-10-10-10-10-10-10-10---6------6----6------6------ 
|-10-10-10-10-10-10-10-10------------6----6------6---- 
|-8--8--8--8--8--8--8--8------------------------------ 
|-8--8--8--8--8--8--8--8------------------------------ 
|-8--8--8--8--8--8--8--8------------------------------ 
 
Chorus: 
 
|---------------------------------------------------------- 
|---------------------------------------------------------- 
|-14-14-14-14-14-14-14-14--12--11-11-11-11--12-11-11-11-11- 
|-x--x--x--x--x--x--x--x---x---x--x--x--x---x--x--x--x--x-- 
|-12-12-12-12-12-12-12-12--10--9--9--9--9---10-9--9--9--9-- 
|---------------------------------------------------------- 
 
|------------------ 
|------------------ 
|-7-7-7-7--5-5-5-5- 
|-x-x-x-x--x-x-x-x- 
|-5-5-5-5--3-3-3-3- x2 
|----------------- 
 
Interlude thing: 
 
|------------------------------------- 
|------------------------------------- 
|--------------5-5--------4-4--------- 
|-3*----3-2-0--5-5--------4-4-3-0-3-0- 
|-3*----3-2-0--3-3--------2-2-3-0-3-0- 
|-3*----3-2-0------3-2-0------3-0-3-0- 
 
Bridge: 
 
|---------------- 
|---------------- 
|---------------- 
|-3*----3*----0*- 
|-3*----3*----0*- 
|-3*----3*----0*- 
 
Outro: 
|---------------------------------- 
|---------------------------------- 
|------------5-5---------4-4-------  
|-3---3-2-0--5-5--3-2-0--4-4--3-3--  
|-3---3-2-0--3-3--3-2-0--2-2--3-3-- 
|-3---3-2-0-------3-2-0-------3-3-- 
 
End on: 
 
|----- 
|----- 
|----- 
|-3-3- 
|-3-3- 
|-3-3- 
 
This is the 1st tab i've submitted in a matter of months so i may be a bit rusty but oh well.have fun. 
 

		  

Full key step upFull key step up
Half key step upHalf key step up
Half key step downHalf key step down
Full key step downFull key step down
hide glossary

See also:

tabs Deep Purple - Smoke on the Water (solo) tabs Billy Idol - White Wedding tabs The Beatles - All My Loving (Solo Real) tabs Coldplay - In My Place tabs The Rolling Stones - Angie tabs Fleetwood Mac - Albatross
e-chords

Other versions:

tabs Finch - Worms Of The Universe
auto scroll beats size up size down change color hide chords drawings
tab show chords e-chords YouTube Clip e-chords hide all tabs e-chords go to top tab

share