Fewjar

A Bleakbox Of Insights Tab

Fewjar

Difficulty: nolevelnolevel

by robepoiel

tuner correct add songbook print version text version save to e-mail
chordsukulelecavacokeyboardtabbassdrumsharmonicsflute Guitar Pro
close

there isn't a video lesson for this song

request
chords

A Bleakbox Of Insights

  		 


Intro 

e|-----0-----------------------------0---------------------------------------| 
B|----1-----------------------------1----------------------------------------| 
G|---2-----------------------------0-----------------------------------------| 
D|--0-----------------------------2------------------------------------------| 
A|---------------------------------------------------------------------------| 
E|---------------------------------------------------------------------------| 
     Irrelevance is my playground, loneliness is my hometown 
e|-----0-----------------------------0---------------------------------------| 
B|----3-----------------------------1----------------------------------------| 
G|---2-----------------------------2-----------------------------------------| 
D|--2-----------------------------0------------------------------------------| 
A|---------------------------------------------------------------------------| 
E|---------------------------------------------------------------------------| 
     Covered in dust lies a conspiracy 

Verse 

e|------0-------0-------0-------0-------0-------0-------0-------0------------| 
B|-----1-1-----1-1-----1-1-----1-1-----1-1-----1-1-----1-1-----1-1-----------| 
G|----2---2---2---2---2---2---2---2---0---0---0---0---0---0---0---0----------| 
D|--0-------0-------0-------0-------2-------2-------2-------2----------------| 
A|---------------------------------------------------------------------------| 
E|---------------------------------------------------------------------------| 
           And this home could... 
e|------0-------0-------0-------0-------0-------0-------0-------0------------| 
B|-----3-3-----3-3-----3-3-----3-3-----1-1-----1-1-----1-1-----1-1-----------| 
G|----2---2---2---2---2---2---2---2---2---2---2---2---2---2---2---2----------| 
D|--2-------2-------2-------2-------0-------0-------0-------0----------------| 
A|---------------------------------------------------------------------------| 
E|---------------------------------------------------------------------------| 


Bridge 

e|------------------0-1-3-5--------------------------------------------------| 
B|------1-3-3-----1----------------------------------------------------------| 
G|--2-3-------2-3------------------------------------------------------------| 
D|----------0----------------------------------------------------------------| 
A|--0------------------------------------------------------------------------| 
E|---------------------------------------------------------------------------| 
                            Unfortunately 

Chorus 

e|-----3-------3-------3-------3-------3-------3-------3---------------------| 
B|----0-0-----0-0-----0-0-----0-0-----0-0-----0-0-----0-0--------------------| 
G|---0---0---0---0---0---0---0---0---0---0---0---0---0---0-------------------|  
D|--2-----2-2-----2-2-----2-2-----2-2-----2-2-----2-2-----2------------------| 
A|---------------------------------------------------------------------------| 
E|---------------------------------------------------------------------------| 
       Keep dreaming... 
e|-----3-------3-------3-------3-------3-------3-------3-------0-------0-----| 
B|----0-0-----0-0-----0-0-----0-0-----0-0-----0-0-----0-0-----1-1-----1-1----| 
G|---0---0---0---0---0---0---0---0---0---0---0---0---0---0---2---2---2---2---|  
D|--2-----2-2-----2-2-----2-2-----2-2-----2-2-----2-2-----2-0-----0-0-----0--| 
A|---------------------------------------------------------------------------| 
E|---------------------------------------------------------------------------| 
       Keep dreaming alone...                      Keep dreaming alone... 
e|-----0-------0-------------------------------------------------------------| 
B|----1-1-----1-1------------------------------------------------------------| 
G|---2---2---2---2-----------------------------------------------------------| 
D|--0-----0-0-----0----------------------------------------------------------| 
A|---------------------------------------------------------------------------| 
E|---------------------------------------------------------------------------| 
        

Bridge #2 

e|--5-3-5-3-------5-3-5-12-5-5--5-3-5-3-------5-3-5-12-13--------------------| 
B|----------5-3-3-----------------------5-3-3--------------------------------| 
G|--2-0-2-0-------2-0-2-9--2-2--2-0-2-0-------2-0-2-9--10--------------------| 
D|----------2-0-0-----------------------2-0-0--------------------------------| 
A|---------------------------------------------------------------------------| 
E|---------------------------------------------------------------------------| 


repeat everything 
	  

Search Paypal
auto scroll beats size up size down change color hide chords drawings
tab show chords e-chords YouTube Clip e-chords hide all tabs e-chords go to top tab

share with facebook