Fearless Vampire Killers

Neon In The Dance Halls

Fearless Vampire Killers

tabs

by  PAULLET3

save to print version add songbook text version e-mail correct tuner
chordsukulelecavacokeyboardtabbassdrumsharmonicaflute Guitar Pro
close

there isn't a video lesson for this song

chords

Neon In The Dance Halls

	  		Fearless Vampire Killers - Neon In The Dance Halls 
Tuning: Drop D 
Watch this cover for ideas on timings and rhythm: https://www.youtube.com/watch?v=E7jEY-TQNZE 

Intro: 
e|---------------------------------------------------------------------------------------| 
B|---------------------------------------------------------------------------------------| 
G|-5-5-5-5--7-7-7-7--8-8-8-8-------------------------------------------------------------| 
D|-5-5-5-5--7-7-7-7--8-8-8-8--6-6-6-6--5-5-5-5--10-10--8-8--6-6--8-8-8-8--10-10-10-10-10-| 
A|-3-3-3-3--5-5-5-5--6-6-6-6--6-6-6-6--5-5-5-5--10-10--8-8--6-6--8-8-8-8--10-10-10-10-10-| 
D|----------------------------6-6-6-6--5-5-5-5--10-10--8-8--6-6--8-8-8-8--10-10-10-10-10-| 

verse 1: 
e|----------------------------------------------------------------------------------------------| 
B|----------------------------------------------------------------------------------------------| 
G|-5-5-5-5--------------------------------------------------------------------------5-5-5-5-5-5-| 
D|-5-5-5-5--3-3-3-------5-5-5-5-5---------5-----5--------3-3-3-3-------5-5-5-5-5-5--5-5-5-5-5-5-| 
A|-3-3-3-3--3-3-3-------5-5-5-5-5--8p5----3-5h6---6-5-6--3-3-3-3-------5-5-5-5-5-5--3-3-3-3-3-3-| 
D|----------3-3-3--8-6--5-5-5-5-5-----8p5----------------3-3-3-3--8-6--5-5-5-5-5-5--------------| 

e|---------------------------------------------| 
B|---------------------------------------------| 
G|-3-3-3-3--8-8-8-8----------------------------| 
D|-3-3-3-3--8-8-8-8--3-3-3-3-3-3-3-3--55555555-| 
A|-1-1-1-1--6-6-6-6--3-3-3-3-3-3-3-3--55555555-| 
D|-------------------3-3-3-3-3-3-3-3--55555555-| 

Chorus: 
e|---------------------------------------------------------------------| 
B|---------------------------------------------------------------------| 
G|-5-5-5-5--7-7-7-7--8-8-8-8-8-8-8-8-----------------------------------|   
D|-5-5-5-5--7-7-7-7--8-8-8-8-8-8-8-8--6-6-6-6-6-6-6-6--5-5-5-5-5-5-5-5-| x2 
A|-3-3-3-3--5-5-5-5--6-6-6-6-6-6-6-6--6-6-6-6-6-6-6-6--5-5-5-5-5-5-5-5-| 
D|------------------------------------6-6-6-6-6-6-6-6--5-5-5-5-5-5-5-5-| 

then 

e|-------------------------------------------------------------------------------------------| 
B|-------------------------------------------------------------------------------------------| 
G|-------------------------------------------------------------------------------------------| 
D|-6-6-6-6--8-8-8-8--5-5-5-5--10-10--8-8--6-6-6-6--8-8-8-8--13-13-13-13-13-13-13-13--9-9-9-9-| 
A|-6-6-6-6--8-8-8-8--5-5-5-5--10-10--8-8--6-6-6-6--8-8-8-8--13-13-13-13-13-13-13-13--9-9-9-9-| 
D|-6-6-6-6--8-8-8-8--5-5-5-5--10-10--8-8--6-6-6-6--8-8-8-8--13-13-13-13-13-13-13-13--9-9-9-9-| 

Post Chorus: 
e|-----------------|               
B|-----------------| 
G|-----------------|  
D|-10-10-10-10-6-5-| x3 
A|-10-10-10-10-6-5-| 
D|-10-10-10-10-6-5-| 

verse 2: 
e|----------------------------------------------------------------------------------------------| 
B|----------------------------------------------------------------------------------------------| 
G|-5-5-5-5--------------------------------------------------------------------------5-5-5-5-5-5-| 
D|-5-5-5-5--3-3-3-------5-5-5-5-5---------5-----5--------3-3-3-3-------5-5-5-5-5-5--5-5-5-5-5-5-| 
A|-3-3-3-3--3-3-3-------5-5-5-5-5--8p5----3-5h6---6-5-6--3-3-3-3-------5-5-5-5-5-5--3-3-3-3-3-3-| 
D|----------3-3-3--8-6--5-5-5-5-5-----8p5----------------3-3-3-3--8-6--5-5-5-5-5-5--------------| 

e|---------------------------------------------| 
B|---------------------------------------------| 
G|-3-3-3-3--8-8-8-8----------------------------| 
D|-3-3-3-3--8-8-8-8--3-3-3-3-3-3-3-3--55555555-| 
A|-1-1-1-1--6-6-6-6--3-3-3-3-3-3-3-3--55555555-| 
D|-------------------3-3-3-3-3-3-3-3--55555555-| 

Chorus: 
e|---------------------------------------------------------------------| 
B|---------------------------------------------------------------------| 
G|-5-5-5-5--7-7-7-7--8-8-8-8-8-8-8-8-----------------------------------|   
D|-5-5-5-5--7-7-7-7--8-8-8-8-8-8-8-8--6-6-6-6-6-6-6-6--5-5-5-5-5-5-5-5-| x2 
A|-3-3-3-3--5-5-5-5--6-6-6-6-6-6-6-6--6-6-6-6-6-6-6-6--5-5-5-5-5-5-5-5-| 
D|------------------------------------6-6-6-6-6-6-6-6--5-5-5-5-5-5-5-5-| 

then 

e|----------------------------------------------------------------------------| 
B|----------------------------------------------------------------------------| 
G|----------------------------------------------------------------------------| 
D|-6-----8-----5------10------8------6-----8-----13------9------6------9------| 
A|-6-(x8)8-(x8)5-(x8)-10-(x4)-8-(x4)-6-(x8)8-(x6)13-(x7)-9-(x7)-6-(x6)-9-(x7)-| 
D|-6-----8-----5------10------8------6-----8-----13------9------6------9------| 


Breakdown: 
e|-------------------------------------------------------------------------------| 
B|-------------------------------------------------------------------------------| 
G|-----------------------------------------7-7/5-4-4h5-7-7/5-7b-7p5--------------| 
D|-10-3--------------------5-----------5-6-----------------------------------5---| 
A|-10---3-6-8-5~-2~--3~-5-6-8---6-3~-5-6-8--------------------------3~-5-6-8---6-| 
D|-10----------------------------------------------------------------------------| 

e|--------------------------------------------------------| 
B|--------------------------------------------------------| 
G|--------------7-7/5-4-4h5-10h12p10-8h10p8-7h8p7-6h7p6-5-| 
D|----------5-6-------------------------------------------| 
A|-3~-5-6-8-----------------------------------------------| 
D|--------------------------------------------------------| 

No guitar from ‚??accursed‚?Ě to ‚??blinded‚?Ě or you can play the bridge part twice 

Bridge: 
e|----------------------------------------------------------------| 
B|----------------------------------------------------------------| 
G|----------------------------------------------------------------| 
D|----------------------------------------------------------------| 
A|----------------------------------------------------------------| 
D|-3-3-3-3-3-3-3--8-8-8-8-8-8-8--3-3-3-3-3-3-3-3--5-5-5-5-5-5-5-5-| 

No guitar until the second ‚??neon in the dance halls‚?Ě 

(‚??neon in the dance halls‚?Ě) 
e|---------------------------------| 
B|---------------------------------| 
G|-5-5-5-5-5-5-5-5-5-5-5-5-5-5-5-5-|  
D|-5-5-5-5-5-5-5-5-5-5-5-5-5-5-5-5-| 
A|-3-3-3-3-3-3-3-3-3-3-3-3-3-3-3-3-| 
D|---------------------------------| 


Final Chorus: 
e|---------------------------------------------------------------------| 
B|---------------------------------------------------------------------| 
G|-5-5-5-5--7-7-7-7--8-8-8-8-8-8-8-8-----------------------------------|   
D|-5-5-5-5--7-7-7-7--8-8-8-8-8-8-8-8--6-6-6-6-6-6-6-6--5-5-5-5-5-5-5-5-| x2 
A|-3-3-3-3--5-5-5-5--6-6-6-6-6-6-6-6--6-6-6-6-6-6-6-6--5-5-5-5-5-5-5-5-| 
D|------------------------------------6-6-6-6-6-6-6-6--5-5-5-5-5-5-5-5-| 


e|--------------------------------------------------------------------| 
B|--------------------------------------------------------------------| 
G|------------------3-3-3-3-3-3-3-3--5-5-5-5-5-5-5-5------------------| 
D|-6-6-6-6-6-6-6-6--3-3-3-3-3-3-3-3--5-5-5-5-5-5-5-5--5-5-5-5-5-5-5-5-| x4 
A|-6-6-6-6-6-6-6-6--1-1-1-1-1-1-1-1--3-3-3-3-3-3-3-3--5-5-5-5-5-5-5-5-| 
D|-6-6-6-6-6-6-6-6------------------------------------5-5-5-5-5-5-5-5-| 

then 

e|-----------------|               
B|-----------------| 
G|-----------------|  
D|-10-10-10-10-6-5-|  
A|-10-10-10-10-6-5-| 
D|-10-10-10-10-6-5-| 
		  

Full key step upFull key step up
Half key step upHalf key step up
Half key step downHalf key step down
Full key step downFull key step down
auto scroll beats size up size down change color hide chords drawings
tab show chords e-chords YouTube Clip e-chords hide all tabs e-chords go to top tab

share