Fatso Jetson

Died In California

Fatso Jetson

tabs

by  DEIVCAVALCANTI

save to print version add songbook text version e-mail correct tuner
chordsukulelecavacokeyboardtabbassdrumsharmonicaflute Guitar Pro
close

there isn't a video lesson for this song

chords

Died In California

	  		main riff/verse 
|-------------------------------------------------------------------------------| 
|-------12-12-12----12-12-12--12-12-12-11-11-11------9-9-9---9-9-9--9-9-9-8-8-8-| 
|-------10-10-10-10-10-10-10--10-10-10-10-10-10------7-7-7-7-7-7-7--7-7-7-7-7-7-| 
|-11-11-11-11-11-11-11-11-11--11-11-11-11-11-11--8-8-8-8-8-8-8-8-8--8-8-8-8-8-8-| 
|-11-11-11-11-11-11-11-11-11--10-10-10-10-10-10--8-8-8-8-8-8-8-8-8--7-7-7-7-7-7-| 
|-9--9--9--------9-----------9-------------------6-6-6-----6-------6------------| 


Chorus 
|------------------------------------| 
|-----------------9-9-9-9--9-9-9-9---| 
|-4-4-4-4-4-4-4-4/7-7-7-7--7-7-7-7---| 
|-5-5-5-5-5-5-5-5/8-8-8-8--8-8-8-8---| 
|-5-5-5-5-5-5-5-5/8-8-8-8--8-8-8-8---| 
|-3-3-3-3-3-3-3-3/6-6-6-6--6-6-6-6---| 3x 

|-----------------------------------------| 
|-----------------10-10-10-10-------------| 
|-4-4-4-4-4-4-4-4-10-10-10-10-9--9--9--9--| 
|-5-5-5-5-5-5-5-5-10-10-10-10-10-10-10-10-| 
|-5-5-5-5-5-5-5-5-8--8--8--8--10-10-10-10-| 
|-3-3-3-3-3-3-3-3-------------8--8--8--8--| 


Outro 

|-------------------------------------------------------------------| 
|-10-10-10-10-------------------10-10-10-10-------------------5-3~--| 
|-10-10-10-10-9--9--9--9----7~--10-10-10-10-9--9--9--9---7~---4-0~--| 
|-10-10-10-10-10-10-10-10---8~--10-10-10-10-10-10-10-10--5~---------| 
|-8--8--8--8--10-10-10-10---8~--8--8--8--8--10-10-10-10--5~---------| 
|-------------8--8--8--8----6~--------------8--8--8--8---3~---------|  



then, for the very end, just lay on the G7 at a healthy pace and end on a  
single strike of the Bb7 and you've Died In California. i've gotten lazy. 
		  

Full key step upFull key step up
Half key step upHalf key step up
Half key step downHalf key step down
Full key step downFull key step down
hide glossary

See also:

tabs Van Halen - Jump tabs The Doors - Roadhouse Blues tabs John Mayer - Belief tabs The Doors - People Are Strange tabs Guns N' Roses - Sweet Child o' mine tabs Aerosmith - Dream On
e-chords

Other versions:

tabs Fatso Jetson - Died In California
auto scroll beats size up size down change color hide chords drawings
tab show chords e-chords YouTube Clip e-chords hide all tabs e-chords go to top tab

share