Faith no More

home > Faith no More

Instrumental Tab

Faith no More

Difficulty: ExpertExpert

tuner correct add songbook print version text version save to e-mail
chordsukulelecavacokeyboardtabbassdrumsharmonicsflute Guitar Pro
chords

Instrumental

Year: 1998 - Album: Who Cares a Lot: Greatest Hits

  		Instrument: Guitar 
Tuning:     E,A,D,G,B,e 
Tabbed By:  Chris Hansson 
Email:      [email protected] 
Check out my band: www.insidious.uni.cc 
 
 
 
verse 1 
	----------------- 
	--------5-------- 
	----4-------4---- 
	--2---2---2------ 
	----------------- 
	----------------- 
 
 
 
 
verse 2 
	------------- 
	--------5---- 
	----4-------- 
	--2---2------ 
	------------- 
	------------- 
 
 
 
verse 3 
	--------------------- 
	--------------------- 
	--------------------- 
	--------------------- 
	--4-4-4-4--4/5--2---- 
	--2-2-2-2--2/3--0---- 
 
 
 
verse 4 
	--4-4-4-4--2-5-4--2-5--------- 
	-------------------------4---- 
	-----------------------2------ 
	------------------------------ 
	------------------------------ 
	------------------------------ 
 
 
 
verse 5 (they overlap) 
	--4-4-4-4--2-5-4--2-5--||----------- 
	-----------------------||--------5-- 
	-----------------------||----4------ 
	-----------------------||--2---2---- 
	-----------------------||----------- 
	-----------------------||----------- 
 
 
 
verse 6 (they overlap) 
	--4-5--||----------- 
	-------||--------5-- 
	-------||----4------ 
	-------||--2---2---- 
	-------||----------- 
	-------||----------- 
 
 
 
SONG LAYOUT: 
 
verse 1 - 7x 
verse 2 - 4x 
verse 3 - 2x 
verse 1 - 4x 
verse 4 - 2x 
verse 2 - 4x 
verse 3 - 4x 
verse 1 - 2x 
 
figure out the rest im to lazy to right now. enjoy. 
 

	  

Search Paypal
auto scroll beats size up size down change color hide chords drawings
tab show chords e-chords YouTube Clip e-chords hide all tabs e-chords go to top tab