Red House Painters

Instrumental Tab

Red House Painters

Difficulty: nolevelnolevel

by bombaXXX

tuner correct add songbook print version text version save to e-mail
chordsukulelecavacokeyboardtabbassdrumsharmonicsflute Guitar Pro
close

there isn't a video lesson for this song

request
chords

Instrumental

  		Rhythm Guitar - Whole song 

E|---------------------------------------------------------------------------| 
B|--------5------------------------------------------------------------------| 
G|----------------------5----------------------------------------------------| 
D|-----5------------5--------------------------------------------------------| 
A|-------------------------3-------------------------------------------------| 
D|-----------3---------------------------------------------------------------| 

Lead Guitar 

E|---15-15-15-15-15-----12-12-12-12-12---------------------------------------| 
B|--------------------------------------13-13--------------------------------| 
G|---------------------------------------------------------------------------| 
D|---------------------------------------------------------------------------| 
A|---------------------------------------------------------------------------| 
D|---------------------------------------------------------------------------| 

E|---15-15-15-15-15-----12-12-12-12-12---------------10-12-13----------------| 
B|--------------------------------------13-13------------------12-13-15-13---| 
G|---------------------------------------------------------------------------| 
D|---------------------------------------------------------------------------| 
A|---------------------------------------------------------------------------| 
D|---------------------------------------------------------------------------| 

E|---15-15-15-15-15-----12-12-12-12-12---------------------------------------| 
B|--------------------------------------13-13--------------------------------| 
G|---------------------------------------------------------------------------|   x2 
D|---------------------------------------------------------------------------| 
A|---------------------------------------------------------------------------| 
D|---------------------------------------------------------------------------| 


E|--10-12-13-------------------0---5-3-1-------------------------------------| 
B|------------12-13-15-8-6-5-3---1-------0-1-3-1-----------------------------| 
G|---------------------------------------------------------------------------| 
D|---------------------------------------------------------------------------| 
A|---------------------------------------------------------------------------| 
D|---------------------------------------------------------------------------| 

E|---------------------------------------------------------------------------| 
B|---8-8-8-8-8----5-5-5-5-5--------------------------------------------------| 
G|---------------------------5-5---------------------------------------------|  x2 
D|---------------------------------------------------------------------------| 
A|---------------------------------------------------------------------------| 
D|---------------------------------------------------------------------------| 

E|--10-12-13-------------------0---5-3-1-------------------------------------| 
B|------------12-13-15-8-6-5-3---1-------0-1-3-1-----------------------------| 
G|---------------------------------------------------------------------------| 
D|---------------------------------------------------------------------------| 
A|---------------------------------------------------------------------------| 
D|---------------------------------------------------------------------------| 

E|--12-13-15------12-13-15----------13-12-10-12------------------------------| 
B|------------13------------13-13----------------13-12-10---13-12-13---------| 
G|---------------------------------------------------------------------------| 
D|---------------------------------------------------------------------------| 
A|---------------------------------------------------------------------------| 
D|---------------------------------------------------------------------------| 

E|--12-13-15------12-13-15----------13-12-10-12------------------------------| 
B|------------13------------13-13----------------13-12-10---13-10-13-10------| 
G|---------------------------------------------------------------------------| 
D|---------------------------------------------------------------------------| 
A|---------------------------------------------------------------------------| 
D|---------------------------------------------------------------------------| 

E|--------11-10-8-10-8-------------------------------------------------------| 
B|--13-12---------------11-13------------------------------------------------| 
G|---------------------------------------------------------------------------| 
D|---------------------------------------------------------------------------| 
A|---------------------------------------------------------------------------| 
D|---------------------------------------------------------------------------| 
	  

Search Paypal
auto scroll beats size up size down change color hide chords drawings
tab show chords e-chords YouTube Clip e-chords hide all tabs e-chords go to top tab

share with facebook