Exercise

Ultimate Beginner Fingerstyle Lesson 2

Exercise

tabs

by  TEUSALVES

save to print version add songbook text version e-mail correct tuner
chordsukulelecavacokeyboardtabbassdrumsharmonicaflute Guitar Pro
close

there isn't a video lesson for this song

chords

Ultimate Beginner Fingerstyle Lesson 2

	  		1  

|-------2-----2p0-----2--------2----2--5------5-------3-|  
|-----------3-----3----------3--------------3-------2---|  
|--2------2---------2---2--2--------------2-------0-----|  
|---------------------------------0---------------------|  
|-----0-----------------------------------------0-------|  
|-------------------------------------------------------|  


2  

|-5------5--4------5---------4-------5------4-------5--7p5--4--2~|  
|------7------7------------7-------7------7-------7--------------|  
|----6----------6-----6--6-------6------6-------6----------------|  
|-0----------------------------0--------------0------------------|  
|----------------------------------------------------------------|  
|----------------------------------------------------------------|  

3  

|-3-----3--2-----3--3--0--3----2------2p0------2-------3--2-----|  
|-----0------0-----------------3----3------3------3-----------2-|  
|---0----------0------------------2----------2-------2------0---|  
|----------------------------0--------------------0-------------|  
|---------------------------------------------------------0-----|  
|-3-----------------3-------------------------------------------|  

|-2--0-------2---3--5p3--2--0-|  
|-------2---------------------|  
|---------0-------------------|  
|-----------------------------|  
|--------------0--------------|  
|-----------------------------|  


5  

|-------------------------------------------------|  
|-3-----3--2------3-----2----3------3--2------3---|  
|-----4------4--------4-----------0-------0-----0-|  
|---4----------4----4-----------0-----------0-----|  
|-------------------------------------------------|  
|-4------------------------3----------------------|  

6  

|------------------------------------------------|  
|---3-----2------3-----2--3-----2-----3--------2-|  
|-----2-----2------2--------2-----2-----2--------|  
|-------0-----0------0--------0-----0-----0------|  
|-2-----------------------2------------------2---|  
|------------------------------------------------| 
		  

See also:

tabs Ira! - Vitrine Viva tabs Deep Purple - Black Knight tabs Deep Purple - Demonds Eye tabs Deep Purple - Smoke on the Water (ver. 2) tabs Deep Purple - Clearly Quite Absurd tabs Ira! - Envelheço na Cidade (intro)
e-chords

Other versions:

tabs Exercise - Ultimate Beginner Fingerstyle Lesson 2
auto scroll beats size up size down change color hide chords drawings
tab show chords e-chords YouTube Clip e-chords hide all tabs e-chords go to top tab

share