Exercise

How To Play Jimmy Page Style

Exercise

tabs Expert expert

by  TEUSALVES

save to print version add songbook text version e-mail correct tuner
chordsukulelecavacokeyboardtabbassdrumsharmonicaflute Guitar Pro
close
how-to-play-jimmy-page-style-by-exercise

there is a video lesson for this song

chords

How To Play Jimmy Page Style

	  		ex1 

|-------------------------------------------------| 
|-------------------------------------------------| 
|2--------2-2-----2----2--2--------0-2-----0----0-| 
|2----2h4---2--2h4--2h4---2----2h4---2--2h4--2h4--| 
|0----------0-------------0----------0------------| 
|-------------------------------------------------| 

|------------------------------------------| 
|----------------------------5h6-5--x--5h7-| 
|2--------4-2-----4----4-----5---5--x--5h7-| 
|2----2h3---2--2h3--2h3------5h7-5--x--5h7-| 
|0----------0------------------------------| 
|------------------------------------------| 

ex 2 

|-------------------------------------| 
|----------------------------------5~-| 
|2-2------5-7b9r7p5h7-7b8-5---2-2--5~-| 
|2-2----/7------------------7-2-2-----| 
|0-0--------------------------0-0-----| 
|-------------------------------------| 

|----10b12-10-8-8h10-10b12--8b9--------------------| 
|-------------------------------10~------------8---| 
|2-2---------------------------------2-2-------7b9-| 
|2-2---------------------------------2-2-----------| 
|0-0---------------------------------0-0-----------| 
|--------------------------------------------------| 

ex 3 

|10-8----8------------------------------------------| 
|-----10---10-8-10-8--8-----------------------------| 
|--------------------9--9-7-9-7-5-7-5---5-----------| 
|-------------------------------------7---7-5-7-5---| 
|-------------------------------------------------7-| 
|---------------------------------------------------| 

|------------------| 
|------------------| 
|------------------| 
|5-----------------| 
|--7-5-7-5-3---3---| 
|------------5---5-| 

ex 4 

|------------------------------------------------| 
|5-6-7-8-4/5-------------------------------------| 
|------------5--7---5----------4-5-6-7-3/4-------| 
|--------------7--7---7-5--5h7-------------5-----| 
|------------------------7-------------------5h7-| 
|------------------------------------------------| 

ex 5 


|5---------5---------5-----8b10-8~-| 
|-8-5-8b10---8-5-------8-5---------| 
|-----------------7b9--------------| 
|----------------------------------| 
|----------------------------------| 
|----------------------------------| 

|--8p5--8p5--8p5--8p5--8p5--8p5-------| 
|5-----5----5----5----5----5---5-8b10-| 
|-------------------------------------| 
|-------------------------------------| 
|-------------------------------------| 
|-------------------------------------| 

ex 6 

|-----5---------------------------------------------| 
|---5---8p5-----------------------------------------| 
|7b9--------8p7p5---7---5/4-------4h5p4---4-5-7-7/9-| 
|-----------------7---7-----7-5-5-------7-----------| 
|---------------------------------------------------| 
|---------------------------------------------------| 

ex 7 

3X                    5X 
|---5-------|-------|-------|-------| 
|3h4--4p3---|-------|----8--|----10-| 
|---------5-|-2-----|-8H9---|-8H9---| 
|-----------|-------|-------|-------| 
|-----------|-------|-------|-------| 
|-----------|-------|-------|-------| 

EX 8 

|--------5-----|-8-5---5------------------------------| 
|------5---8p5-|-----8---8-5-8-5---5------------------| 
|--7b9---------|-----------------7---7-5-7-5---5------| 
|--------------|-----------------------------7---7-5-7| 
|--------------|--------------------------------------| 
|--------------|--------------------------------------| 

 4X 

|--------|---------------------| 
|--------|---------------------| 
|--------|---------------------| 
|-----5--|---------------------| 
|-6h7----|-5h6p5p3---5---3b4---| 
|--------|---------5---5-----3-| 


		  

See also:

tabs Ira! - Vitrine Viva tabs Deep Purple - Black Knight tabs Deep Purple - Demonds Eye tabs Deep Purple - Smoke on the Water (ver. 2) tabs Deep Purple - Clearly Quite Absurd tabs Ira! - Envelheço na Cidade (intro)
e-chords

Other versions:

tabs Exercise - How To Play Jimmy Page Style
auto scroll beats size up size down change color hide chords drawings
tab show chords e-chords YouTube Clip e-chords hide all tabs e-chords go to top tab

share