Exercise

How To Play David Gilmour Style

Exercise

tabs

by  TEUSALVES

save to print version add songbook text version e-mail correct tuner
chordsukulelecavacokeyboardtabbassdrumsharmonicaflute Guitar Pro
close
how-to-play-david-gilmour-style-by-exercise

there is a video lesson for this song

chords

How To Play David Gilmour Style

	  		ex 1 
-------------------------------------------------------------------- 
-----------------------------------------15------------------------- 
17b19r17p15-17b19-17b19~--17b19r17p15----15------------------------- 
--------------------------------------17---------------------------- 
-------------------------------------------------------------------- 
-------------------------------------------------------------------- 

ex2 

-----3--------------------------------------------------------------- 
---3---6p3----------------------------------------------------------- 
5b7--------5p3-5p3--------------------------------------------------- 
------------------5p3------------------------------------------------ 
---------------------5p3/1------------------------------------------- 
--------------------------3------------------------------------------ 

ex 3 

18p15--18--17b18r17-----------------18p15--20b22-20b22r20----------- 
-----15-------------18p15h18-18b20~------15--------------18-18/20--- 
-------------------------------------------------------------------- 
-------------------------------------------------------------------- 
-------------------------------------------------------------------- 
-------------------------------------------------------------------- 

ex 4 

----------------------------------------20b22r20p18----------------- 
18b20r18p15-18-18b20--20b23r20p18-20b23~-----------20--------------- 
-------------------------------------------------------------------- 
-------------------------------------------------------------------- 
-------------------------------------------------------------------- 
-------------------------------------------------------------------- 

5 

-------------------------------------------------------------------- 
---16---16-18-18b20------------------------------------------------- 
15---15------------------------------------------------------------- 
-------------------------------------------------------------------- 
-------------------------------------------------------------------- 
-------------------------------------------------------------------- 

-------------------------------------------------------------------- 
-------------------------------------------------------------------- 
-------------------------------------------------------------------- 
-------------------------------------------------------------------- 
-------------------------------------------------------------------- 
-------------------------------------------------------------------- 
ex 6 
-------------------6h8-8b10r8-6------------------------------------- 
----------------6h8-------------8----------------------------------- 
-----------3h5/7---------------------------------------------------- 
--------3h5---------------------=----------------------------------- 
---1h3/5------------------------------------------------------------ 
1h3----------------------------------------------------------------- 

ex 7 
-------------------------------------------------------------------- 
------8-11-11b13-10-8b11r8------------------------------------------ 
---3/8-------------------------------------------------------------- 
/5------------------------------------------------------------------ 
-------------------------------------------------------------------- 
-------------------------------------------------------------------- 
ex 8 
----8-10-10b11-10-8------------------------------------------------- 
--8-----------------11-11b13---------------------------------------- 
8------------------------------------------------------------------- 
-------------------------------------------------------------------- 
-------------------------------------------------------------------- 
-------------------------------------------------------------------- 
ex 9 
18b20-18b20-18-15--------------------------------------------------- 
------------------18b20-18-15--------------------------------------- 
------------------------------17b19-15------------------------------ 
---------------------------------------17--------------------------- 
-------------------------------------------------------------------- 
-------------------------------------------------------------------- 
		  

See also:

tabs Ira! - Vitrine Viva tabs Deep Purple - Black Knight tabs Deep Purple - Demonds Eye tabs Deep Purple - Smoke on the Water (ver. 2) tabs Deep Purple - Clearly Quite Absurd tabs Ira! - Envelheço na Cidade (intro)
e-chords

Other versions:

tabs Exercise - How To Play David Gilmour Style
auto scroll beats size up size down change color hide chords drawings
tab show chords e-chords YouTube Clip e-chords hide all tabs e-chords go to top tab

share