Exercise

How To Play Kirk Hammett Style

Exercise

tabs

by  TEUSALVES

save to print version add songbook text version e-mail correct tuner
chordsukulelecavacokeyboardtabbassdrumsharmonicaflute Guitar Pro
close
how-to-play-kirk-hammett-style-by-exercise

there is a video lesson for this song

chords

How To Play Kirk Hammett Style

	  		ex1 

--------------------------------------------------------12h15b17 
15-------------------------------------------------12h15-------- 
14b16-16r14-14p12--12-------------------------12h14------------- 
-----------------14---14p12--------------12h14------------------ 
---------------------------14p12/10-12/14----------------------- 
---------------------------------------------------------------- 

ex2 

15p12----12----------------------------------------------------- 
------15----15p12-15p12----12----------------------------12~---- 
------------------------14----14p12-14p12----12----------12~---- 
------------------------------------------14----14-12-14-------- 
---------------------------------------------------------------- 
---------------------------------------------------------------- 

EX 3 

---------------------------------------------------------------- 
10p8p7---------------------------------------------------------- 
-------h9p7----------------------------------------------------- 
------------h9p7/5---------------------------------------------- 
-------------------h7p5h7--------------------------------------- 
---------------------------------------------------------------- 

EX 4 
--------12------|------12-----12------------14-----14----------- 
------12--15p12-|-15b17--15b17--15b17--17b19--17b19--17b19------ 
14b16-----------|----------------------------------------------- 
----------------|----------------------------------------------- 
----------------|----------------------------------------------- 
----------------|----------------------------------------------- 

------15-------15--------------17-------17---------------------- 
18b20----18b20----18b20--20b22----20b22----20b22---------------- 
---------------------------------------------------------------- 
---------------------------------------------------------------- 
---------------------------------------------------------------- 
---------------------------------------------------------------- 

EX 5 

2x          3x           3x          2x       
  
|-15-14-12-|-15-14-17-|-15-19-17-|-20-19-17-|-20-19-22b24------- 
|----------|----------|----------|----------|------------------- 
|----------|----------|----------|----------|------------------- 
|----------|----------|----------|----------|------------------- 
|---(2x)---|---(3x)---|---(3x)---|---(2x)---|------------------- 
|----------|----------|----------|----------|------------------- 

EX 6 




 4X           4X          4X           4X         4X  

|--15p12----12--|--17p14----14--|--19p15----15--|--20p15----15-- 
|--------13-----|--------15-----|--------17-----|--------17----- 
|---------------|---------------|---------------|--------------- 
|---------------|---------------|---------------|--------------- 
|---------------|---------------|---------------|--------------- 
|-----(4x)------|-----(4x)------|-----(4x)------|-----(4x)------ 



|--22p17----17--|--22b24---------------------------------------- 
|--------19-----|----------------------------------------------- 
|---------------|----------------------------------------------- 
|---------------|----------------------------------------------- 
|---------------|----------------------------------------------- 
|-----(4x)------|----------------------------------------------- 




- 
EX 7 
12h15----------------------------------------------------------- 
------12-12h15-------------------------------------------------- 
---------------12-12h14----------------------------------------- 
------------------------12-12h14-------------------------------- 
---------------------------------12-12h14-10-7ha---------------- 
---------------------------------------------------------------- 

EX 8 
                               4X    4X      4X      3X 
-22b24r22-19h22p19----19-19--|-22p19--|-19p17--|-17p15--|-15p12- 
-------------------22--------|--------|--------|--------|------- 
-----------------------------|--------|--------|--------|------- 
-----------------------------|--------|--------|--------|------- 
-----------------------------|--------|--------|--------|------- 
-----------------------------|--(4x)--|--(4x)--|--(4x)--|--(4x)- 

----12---------------------------------------------------------- 
-15----15b17---------------------------------------------------- 
---------------------------------------------------------------- 
---------------------------------------------------------------- 
---------------------------------------------------------------- 
---------------------------------------------------------------- 



EX9 
 4X                    4X                    4X 
|-12-15-12-14-12--12|-12-17-12-15-12--12-|-15-19-15-17-15--15--- 
|---------------15--|---------------15---|---------------17----- 
|-------------------|--------------------|---------------------- 
|-------------------|--------------------|---------------------- 
|-------------------|--------------------|---------------------- 
|-------(4x)--------|-------(4x)---------|---------(4x)--------- 


  4X                  4X                     4X 
|-20-15-17-15--15-|-17-22-17-19-17--17-|-22-17-22-22b24-24-24-24 
|------------17---|---------------19---|------------------------ 
|-----------------|--------------------|------------------------ 
|-----------------|--------------------|------------------------ 
|-----------------|--------------------|------------------------ 
|------(4x)-------|--------(4x)--------|------------------------ 
		  

See also:

tabs Ira! - Vitrine Viva tabs Deep Purple - Black Knight tabs Deep Purple - Demonds Eye tabs Deep Purple - Smoke on the Water (ver. 2) tabs Deep Purple - Clearly Quite Absurd tabs Ira! - Envelheço na Cidade (intro)
e-chords

Other versions:

tabs Exercise - How To Play Kirk Hammett Style
auto scroll beats size up size down change color hide chords drawings
tab show chords e-chords YouTube Clip e-chords hide all tabs e-chords go to top tab

share