Exercise

How To Play Kiko Loureiro Style

Exercise

tabs

by  TEUSALVES

save to print version add songbook text version e-mail correct tuner
chordsukulelecavacokeyboardtabbassdrumsharmonicaflute Guitar Pro
close
how-to-play-kiko-loureiro-style-by-exercise

there is a video lesson for this song

chords

How To Play Kiko Loureiro Style

	  		ex1 
----------------------------------5-------------8--------------- 
------5-------------8------------------------------------------- 
5h7h8---8p7p5-5h7h8---8p7p5-5h7h8---8p7p5-5h7h8---8p7p5--------- 
---------------------------------------------------------------- 
---------------------------------------------------------------- 
---------------------------------------------------------------- 


ex2 
---------------8h10h12p10p8-----------------h8h10h12------------ 
---------------------------------------------------------------- 
-------9h10h12--------------h12p10p9h10h12---------------------- 
---------------------------------------------------------------- 
8h10h12--------------------------------------------------------- 
---------------------------------------------------------------- 


ex 3 
17t-12p8--12t-8-------------------------------8h-12tp8-12h17t--- 
----------------10h13t-10----------10h-13tp10------------------- 
--------------------------9h-14tp9------------------------------ 
---------------------------------------------------------------- 
---------------------------------------------------------------- 
---------------------------------------------------------------- 


ex 4 
------------------12h-20t-12p----------------------------------- 
---------------13h-----------13h-------------------------------- 
-----------17t-------------------------------------------------- 
-------15t------------------------------------------------------ 
----10---------------------------------------------------------- 
8h12------------------------------------------------------------ 


ex 5 
------------------------------------13-15-16-16/20-20b22r20-20~- 
11b13r11-11b13-------------13-15-16----------------------------- 
---------------10/12-13-15-------------------------------------- 
---------------------------------------------------------------- 
---------------------------------------------------------------- 
---------------------------------------------------------------- 


ex 7 
 2x                    2x 
|---------------------|----------------------------------------- 
|--------------8h10p8-|----------------------------------------- 
|---------------------|----------------------------------------- 
|-12p8----8h12--------|----------------------------------------- 
|------10-------------|----------------------------------------- 
|---------------------|----------------------------------------- 


|--------------8h10p8-|----------------------------------------- 
|---------------------|----------------------------------------- 
|-12p8----8h12--------|----------------------------------------- 
|------10-------------|----------------------------------------- 
|---------------------|----------------------------------------- 
|---------------------|----------------------------------------- 


|--------------------|------------------------------------------ 
|-------------6h10p6-|------------------------------------------ 
|--------------------|------------------------------------------ 
|-10p7---7h10--------|------------------------------------------ 
|------8-------------|------------------------------------------ 
|--------------------|------------------------------------------ 


|-------------6h10p6-|------------------------------------------ 
|--------------------|------------------------------------------ 
|-10p7---7h10--------|------------------------------------------ 
|------8-------------|------------------------------------------ 
|--------------------|------------------------------------------ 
|--------------------|------------------------------------------ 

|-----------------|--------------------------------------------- 
|-----------4h8p4-|--------------------------------------------- 
|-----------------|--------------------------------------------- 
|-8p5---5h8-------|--------------------------------------------- 
|-----6-----------|--------------------------------------------- 
|-----------------|--------------------------------------------- 

|-----------4h8p4-|--------------------------------------------- 
|-----------------|--------------------------------------------- 
|-8p5---5h8-------|--------------------------------------------- 
|-----6-----------|--------------------------------------------- 
|-----------------|--------------------------------------------- 
|-----------------|--------------------------------------------- 

------------3-5-5/10p6-------6-10/15p10------------------------- 
----------3------------8---8------------11---------------------- 
--------3----------------7-----------------12------------------- 
------5---------------------------------------12---------------- 
----5--------------------------------------------13-10-9-------- 
3h6------------------------------------------------------------- 


ex 8 

h10h12p8-------------------------------------------------------- 
---------h10h12p8----------------------------------------------- 
------------------h10h12p9-------------------------------------- 
---------------------------h10h12p9----------------------------- 
------------------------------------h10h12p8-------------------- 
---------------------------------------------h10h12p8----------- 
		  

See also:

tabs Ira! - Vitrine Viva tabs Deep Purple - Black Knight tabs Deep Purple - Demonds Eye tabs Deep Purple - Smoke on the Water (ver. 2) tabs Deep Purple - Clearly Quite Absurd tabs Ira! - Envelheço na Cidade (intro)
e-chords

Other versions:

tabs Exercise - How To Play Kiko Loureiro Style
auto scroll beats size up size down change color hide chords drawings
tab show chords e-chords YouTube Clip e-chords hide all tabs e-chords go to top tab

share