Eterna

home > Eterna

Deserto da Alma Tab

Eterna

Difficulty: IntermediateIntermediate

tuner correct add songbook print version text version save to e-mail
chordsukulelecavacokeyboardtabbassdrumsharmonicsflute Guitar Pro
chords

Deserto da Alma

  		D#||-------5-------------------|-------5--------------------| 
A#||--2----5------2h3h2-----2--|--2----5----3-3-2-2---------| 
F#||--2-----------2h2h2-----2--|--2-----------------4-4-2-2-| 
C#||--2-----------2h4h2-----2--|--2-------------------------| 
G#||--0-------x-x--------x-----|----------------------------| 
D#||---------------------------|----------------------------| 
 
 
---------------------12--|-----------------------|--3-----------------------| 
-------2-------10--------|----10---------10~-----|--3-----------------------| 
-------2----9------------|----------9------------|--0--------12/-14/-12/-9--| 
-------2-----------------|-----------------------|--0-----------------------| 
-------------------------|-----------------------|--2--------10/-12/-10/-7--| 
--2----------------------|-----------------------|--3-----------------------| 
 
 
                                                               
----------------------|-------------------|------------------| 
----------------------|--2----------------|------------------| 
--11----11~-----------|--2----------------|------------------| 
----------------------|--2----------------|------------------| 
--9-------------------|--0----------------|------------------| 
----------------------|-------------------|------------------| 
 
 
                                                                      
------------------|------------------|----------|-------------------| 
------------------|------------------|----------|--2----------------| 
------------------|------------------|----------|--2----------------| 
------------------|------------------|----------|--2----------------| 
------------------|------------------|----------|--0----------------| 
------------------|------------------|----------|-------------------| 
 
 
                                                                               
------------------|-------------------|------------------|--3----------------| 
------------------|-------------------|------------------|--3----------------| 
------------------|-------------------|------------------|--0----------------| 
------------------|--4----------------|------------------|--0----------------| 
------------------|--4----------------|------------------|--2----------------| 
------------------|--2----------------|------------------|--3----------------| 
 
 
                                                                               
------------------|-------------------|------------------|-------------------| 
------------------|--2----------------|------------------|--2----------------| 
------------------|--2----------------|------------------|--2----------------| 
------------------|--2----------------|------------------|--2----------------| 
------------------|--0----------------|------------------|--0----------------| 
------------------|-------------------|------------------|-------------------| 
 
 
                                                                                
------------------|-------------------|--3----------------|-------------------| 
------------------|-------------------|--3----------------|--2----------------| 
------------------|-------------------|--0----------------|--2----------------| 
------------------|--4----------------|--0----------------|--2----------------| 
------------------|--4----------------|--2----------------|--0----------------| 
------------------|--2----------------|--3----------------|-------------------| 
 
 
                                                                   
------------------|-------------------|--------------------------| 
------------------|-------------------|--------------------------| 
------------------|-------------------|--------------------------| 
------------------|--4----------------|--5--5--5--5--5--5--5--5--| 
------------------|--4----------------|--5--5--5--5--5--5--5--5--| 
------------------|--2----------------|--3--3--3--3--3--3--3--3--| 
 
 
                                                          
-------5-------------------|-------5--------------------| 
--2----5------2h3h2-----2--|--2----5----3-3-2-2---------| 
--2-----------2h2h2-----2--|--2-----------------4-4-2-2-| 
--2-----------2h4h2-----2--|--2-------------------------| 
--0-------x-x--------x-----|----------------------------| 
---------------------------|----------------------------| 
 
 
                                                                              
---------------------12--|-----------------------|--3-----------------------| 
-------2-------10--------|----10---------10~-----|--3-----------------------| 
-------2----9------------|----------9------------|--0--------12/-14/-12-----| 
-------2-----------------|-----------------------|--0-----------------------| 
-------------------------|-----------------------|--2--------10/-12/-10/-9--| 
--2----------------------|-----------------------|--3-----------------------| 
 
 
                                                                                
---------------------------|------------------------|-------------0-----------| 
---------------------------|------------------------|-------0--------0-----0--| 
-------11--------11r-------|------------------------|----6-----6--------6-----| 
---------------------x--x--|--2----2--------2----2--|-------------------------| 
----9------9--9------x--x--|--0----0--0--0--0----0--|-------------------------| 
---------------------------|------------------------|-------------------------| 
 
 
                                                          
-------5-------------------|-------5--------------------| 
--2----5------2h3h2-----2--|--2----5----3-3-2-2---------| 
--2-----------2h2h2-----2--|--2-----------------4-4-2-2-| 
--2-----------2h4h2-----2--|--2-------------------------| 
--0-------x-x--------x-----|----------------------------| 
---------------------------|----------------------------| 
 
 
                                                                              
---------------------12--|-----------------------|--3-----------------------| 
-------2-------10--------|----10---------10~-----|--3-----------------------| 
-------2----9------------|----------9------------|--0--------12/-14/-12-----| 
-------2-----------------|-----------------------|--0-----------------------| 
-------------------------|-----------------------|--2--------10/-12/-10/-9--| 
--2----------------------|-----------------------|--3-----------------------| 
 
 
                                                      
---------------------------|------------------------| 
---------------------------|------------------------| 
-------11--------11r-------|------------------------| 
---------------------x--x--|--2----2--------2----2--| 
----9------9--9------x--x--|--0----0--0--0--0----0--| 
---------------------------|------------------------| 
 
 
                             
--------------------------|| 
------10h-9--x--x-x-9/-7--|| 
------9---9--x--x-x-9/-7--|| 
------9---9--x--x-x-9/-7--|| 
--------------------------|| 
--------------------------|| 

	  

Search Paypal
auto scroll beats size up size down change color hide chords drawings
tab show chords e-chords YouTube Clip e-chords hide all tabs e-chords go to top tab