Eterna

home > Eterna

Fiat Voluntas Tua Tab

Eterna

Difficulty: nolevelnolevel

tuner correct add songbook print version text version save to e-mail
chordsukulelecavacokeyboardtabbassdrumsharmonicsflute Guitar Pro
chords

Fiat Voluntas Tua

  		 
Paulo Frade                                                         
E||--------------------------|-------------------------| 
B||--------------------------|-------------------------| 
G||-----7-----7-----7-----7/-|--8~------7-----7-----7/-| 
D||--0-----0-----0-----0-----|-------0-----0-----0-----| 
A||--------------------------|-------------------------| 
E||--------------------------|-------------------------| 
 
 
                                                                            
-------------------------|---------------------|--------------------------| 
-------------------------|---------------------|--------------------------| 
--8~------7-----7-----7/-|--6-------6----------|-----7-----7-----7-----7/-| 
-------0-----0-----0-----|-------0-------------|--0-----0-----0-----0-----| 
-------------------------|---------------------|--------------------------| 
-------------------------|---------------------|--------------------------| 
 
 
                                                                           
-------------------------|-------------------------|---------------------| 
-------------------------|-------------------------|---------------------| 
--8~------7-----7-----7/-|--8~------7-----7-----7/-|--6-------6----------| 
-------0-----0-----0-----|-------0-----0-----0-----|-------0-------------| 
-------------------------|-------------------------|---------------------| 
-------------------------|-------------------------|---------------------| 
 
 
                                                        
|---------------------------|-------------------------| 
|---------------------------|-------------------------| 
|*-----7-----7-----7-----7h-|--8/------7-----7-----7/-| 
|*--------0-----0-----0-----|-------0-----0-----0-----| 
|---5-----------------------|-------------------------| 
|---------------------------|-------------------------| 
 
 
                                                                              
-------------------------|----------------------||--------------------------| 
-------------------------|----------------------||--------------------------| 
--8/------7-----7-----7/-|--6-------6----------*||-----7-----7-----7-----7/-| 
-------0-----0-----0-----|-------0-------------*||--0-----0-----0-----0-----| 
-------------------------|----------------------||--------------------------| 
-------------------------|----------------------||--------------------------| 
 
 
                                                                           
-------------------------|-------------------------|---------------------| 
-------------------------|-------------------------|---------------------| 
--8~------7-----7-----7/-|--8~------7-----7-----7/-|--6-------6----------| 
-------0-----0-----0-----|-------0-----0-----0-----|-------0-------------| 
-------------------------|-------------------------|---------------------| 
-------------------------|-------------------------|---------------------| 
 
 
                                                                                
--------------------------|-------------------------|-------------------------| 
--------------------------|-------------------------|-------------------------| 
-----7-----7-----7-----7/-|--8~------7-----7-----7/-|--8~------7-----7-----7/-| 
--0-----0-----0-----0-----|-------0-----0-----0-----|-------0-----0-----0-----| 
--------------------------|-------------------------|-------------------------| 
--------------------------|-------------------------|-------------------------| 
 
 
                                                          
---------------------|----|-----------------------------| 
---------------------|----|-----------------------------| 
--6-------6----------|----|--2----------2----------3----| 
-------0-------------|----|--0--0-0-0-0-0--0-0-0-0-0----| 
---------------------|----|-----------------------------| 
---------------------|----|-----------------------------| 
 
 
                                                             
-----------------------------|-----------------------------| 
-----------------------------|-----------------------------| 
--2----------2----------6----|--2----------2----------3----| 
--0--0-0-0-0-0--0-0-0-0-5----|--0--0-0-0-0-0--0-0-0-0-0----| 
-----------------------------|-----------------------------| 
-----------------------------|-----------------------------| 
 
 
                                                       
-----------------------|-----------------------------| 
-----------------------|-----------------------------| 
--2--0----2--3--6------|--2----------2----------3----| 
--2--0----2--3--5------|--0--0-0-0-0-0--0-0-0-0-0----| 
-----------------------|-----------------------------| 
-----------------------|-----------------------------| 
 
 
                                                             
-----------------------------|-----------------------------| 
-----------------------------|-----------------------------| 
--2----------2----------6----|--2----------2----------3----| 
--0--0-0-0-0-0--0-0-0-0-5----|--0--0-0-0-0-0--0-0-0-0-0----| 
-----------------------------|-----------------------------| 
-----------------------------|-----------------------------| 
 
 
                                                                  
-------------------------|------------------|-------------------| 
-------------------------|------------------|--5----------------| 
-------------------------|------------------|--7----------------| 
-------------------------|------------------|--7----------------| 
--5h-4--------4-------7--|------------------|--5----------------| 
--------6--5------5------|------------------|-------------------| 
 
 
                                                             
-------------------|-------------------|-------------------| 
--5----------------|--5----------------|--5----------------| 
--6----------------|--6----------------|--7----------------| 
--7----------------|--8----------------|--7----------------| 
--5----------------|--5----------------|--5----------------| 
-------------------|-------------------|-------------------| 
 
 
                                                                       
----------------------|----------6----5-------|----------------------| 
--2------3----2-------|--2-------6----5-------|--2------3----2-------| 
--2-------------------|--2--------------------|--2-------------------| 
--2-------------------|--2--------------------|--2-------------------| 
--0------0---------0--|-------0------------0--|--0------0---------0--| 
----------------------|-----------------------|----------------------| 
 
 
                                                                 
--5/-6/-5/-6/-5--------|-------------------|-------------------| 
--5/-6/-5/-6/-5--------|--5----------------|--5----------------| 
-----------------------|--7----------------|--6----------------| 
-----------------------|--7----------------|--7----------------| 
-----------------------|--5----------------|--5----------------| 
-----------------------|-------------------|-------------------| 
 
 
                                                                
-------------------|-------------------|----------------------| 
--5----------------|--5----------------|--2------3----2-------| 
--6----------------|--7----------------|--2-------------------| 
--8----------------|--7----------------|--2-------------------| 
--5----------------|--5----------------|--0------0---------0--| 
-------------------|-------------------|----------------------| 
 
 
                                                                        
----------6----5-------|----------------------|--5/-6/-5/-6/-5--------| 
--2-------6----5-------|--2------3----2-------|--5/-6/-5/-6/-5--------| 
--2--------------------|--2-------------------|-----------------------| 
--2--------------------|--2-------------------|-----------------------| 
-------0------------0--|--0------0---------0--|-----------------------| 
-----------------------|----------------------|-----------------------| 
 
 
                                                                                
-------------------------------------|----------------------------------------| 
-------------------------------------|----------------------------------------| 
--6------6------7--------------------|--3------2------------------------------| 
--6------6------7--------------------|--3------2------3------2------2----2----| 
--4------4------5--------------------|--1------0------3------0------0----0----| 
-------------------------------------|----------------1-----------------------| 
 
 
                                                                                 
-------------------------------------|-----------------------------------------| 
-------------------------------------|-----------------------------------------| 
--6------6------7--------------------|--3------2-------------------------------| 
--6------6------7--------------------|--3------2------3------2----2--2----2----| 
--4------4------5--------------------|--1------0------3------2----2--2----2----| 
-------------------------------------|----------------1------0----0--0----0----| 
 
 
                                                                       
----------------------------------|----------------------------------| 
----------------------------------|----------------------------------| 
----------------------------------|----------------------------------| 
--5-------5-------5-------5-------|--5-------5-------5-------5-------| 
--5-5-5-5-5-5-5-5-5-5-5-5-5-5-5-5-|--5-5-5-5-5-5-5-5-5-5-5-5-5-5-5-5-| 
----------------------------------|----------------------------------| 
 
 
                                                        
----------------------------------|-------------------| 
----------------------------------|-------------------| 
----------------------------------|-------------------| 
--5-------5-------5-------5-------|--2----------------| 
--5-5-5-5-5-5-5-5-5-5-5-5-5-5-5-5-|--0----------------| 
----------------------------------|-------------------| 
 
 
                                                                       
----------------------------------|----------------------------------| 
----------------------------------|----------------------------------| 
----------------------------------|----------------------------------| 
--5-------5-------5-------5-------|--5-------5-------5-------5-------| 
--5-5-5-5-5-5-5-5-5-5-5-5-5-5-5-5-|--5-5-5-5-5-5-5-5-5-5-5-5-5-5-5-5-| 
----------------------------------|----------------------------------| 
 
 
                                                        
----------------------------------|-------------------| 
----------------------------------|-------------------| 
----------------------------------|-------------------| 
--5-------5-------5-------5-------|--2----------------| 
--5-5-5-5-5-5-5-5-5-5-5-5-5-5-5-5-|--0----------------| 
----------------------------------|-------------------| 
 
 
                                                                   
--------------------------------|--------------------------------| 
--------------------------------|--------------------------------| 
--------------------------------|--------------------------------| 
----------5--------------5------|----------5--------------5------| 
----------5--------------5------|----------5--------------5------| 
--3-3-3-3-3--3-3-3-3-3-3-3--3-3-|--3-3-3-3-3--3-3-3-3-3-3-3--3-3-| 
 
 
                                                                   
--------------------------------|--------------------------------| 
--------------------------------|--------------------------------| 
----------5--------------5------|----------5--------------5------| 
----------5--------------5------|----------5--------------5------| 
--3-3-3-3-3--3-3-3-3-3-3-3--3-3-|--3-3-3-3-3--3-3-3-3-3-3-3--3-3-| 
--------------------------------|--------------------------------| 
 
 
                                                                   
--------------------------------|--------------------------------| 
--------------------------------|--------------------------------| 
--------------------------------|--------------------------------| 
----------5--------------5------|----------5--------------5------| 
----------5--------------5------|----------5--------------5------| 
--3-3-3-3-3--3-3-3-3-3-3-3--3-3-|--3-3-3-3-3--3-3-3-3-3-3-3--3-3-| 
 
 
                                                                   
--------------------------------|--------------------------------| 
--------------------------------|--------------------------------| 
----------5--------------5------|----------5--------------5------| 
----------5--------------5------|----------5--------------5------| 
--3-3-3-3-3--3-3-3-3-3-3-3--3-3-|--3-3-3-3-3--3-3-3-3-3-3-3--3-3-| 
--------------------------------|--------------------------------| 
 
 
                                                               
-------------------|------------------|----------------------| 
-------------------|------------------|----------------------| 
-------------------|------------------|--7--------------7----| 
--2----------------|------------------|--7------7----7--7----| 
--0----------------|------------------|--5------4----4--5----| 
-------------------|------------------|----------------------| 
 
 
                                                                            
-------------------------|----------------------|-------------------------| 
-------------------------|----------------------|-------------------------| 
--7----------------------|--7--------------7----|--7----------------------| 
--7----------------------|--7------7----7--7----|--7----------------------| 
--5----0--4--5--7--5--4--|--5------4----4--5----|--5----0--4--5--7--5--4--| 
-------------------------|----------------------|-------------------------| 
 
 
                                                             
-----------------------------|-----------------------------| 
-----------------------------|-----------------------------| 
--2----------2----------3----|--2----------2----------6----| 
--0--0-0-0-0-0--0-0-0-0-0----|--0--0-0-0-0-0--0-0-0-0-5----| 
-----------------------------|-----------------------------| 
-----------------------------|-----------------------------| 
 
 
                                                       
-----------------------------|-----------------------| 
-----------------------------|-----------------------| 
--2----------2----------3----|--2--0----2--3--6------| 
--0--0-0-0-0-0--0-0-0-0-0----|--2--0----2--3--5------| 
-----------------------------|-----------------------| 
-----------------------------|-----------------------| 
 
 
                                                             
-----------------------------|-----------------------------| 
-----------------------------|-----------------------------| 
--2----------2----------3----|--2----------2----------6----| 
--0--0-0-0-0-0--0-0-0-0-0----|--0--0-0-0-0-0--0-0-0-0-5----| 
-----------------------------|-----------------------------| 
-----------------------------|-----------------------------| 
 
 
                                                                            
-----------------------------|-------------------------|------------------| 
-----------------------------|-------------------------|------------------| 
--2----------2----------3----|-------------------------|------------------| 
--0--0-0-0-0-0--0-0-0-0-0----|-------------------------|------------------| 
-----------------------------|--5h-4--------4-------7--|------------------| 
-----------------------------|--------6--5------5------|------------------| 
 
 
                                                                                
------------------|-------------------|-------------------|-------------------| 
------------------|--5----------------|--5----------------|--5----------------| 
------------------|--7----------------|--6----------------|--6----------------| 
------------------|--7----------------|--7----------------|--8----------------| 
------------------|--5----------------|--5----------------|--5----------------| 
------------------|-------------------|-------------------|-------------------| 
 
 
                                                                    
-------------------|----------------------|----------6----5-------| 
--5----------------|--2------3----2-------|--2-------6----5-------| 
--7----------------|--2-------------------|--2--------------------| 
--7----------------|--2-------------------|--2--------------------| 
--5----------------|--0------0---------0--|-------0------------0--| 
-------------------|----------------------|-----------------------| 
 
 
                                                                    
----------------------|--5/-6/-5/-6/-5--------|-------------------| 
--2------3----2-------|--5/-6/-5/-6/-5--------|--5----------------| 
--2-------------------|-----------------------|--7----------------| 
--2-------------------|-----------------------|--7----------------| 
--0------0---------0--|-----------------------|--5----------------| 
----------------------|-----------------------|-------------------| 
 
 
                                                             
-------------------|-------------------|-------------------| 
--5----------------|--5----------------|--5----------------| 
--6----------------|--6----------------|--7----------------| 
--7----------------|--8----------------|--7----------------| 
--5----------------|--5----------------|--5----------------| 
-------------------|-------------------|-------------------| 
 
 
                                                                       
----------------------|----------6----5-------|----------------------| 
--2------3----2-------|--2-------6----5-------|--2------3----2-------| 
--2-------------------|--2--------------------|--2-------------------| 
--2-------------------|--2--------------------|--2-------------------| 
--0------0---------0--|-------0------------0--|--0------0---------0--| 
----------------------|-----------------------|----------------------| 
 
 
                                                               
--5/-6/-5/-6/-5--------|-------------------------------------| 
--5/-6/-5/-6/-5--------|-------------------------------------| 
-----------------------|--6------6------7--------------------| 
-----------------------|--6------6------7--------------------| 
-----------------------|--4------4------5--------------------| 
-----------------------|-------------------------------------| 
 
 
                                                                                
----------------------------------------|-------------------------------------| 
----------------------------------------|-------------------------------------| 
--3------2------------------------------|--6------6------7--------------------| 
--3------2------3------2------2----2----|--6------6------7--------------------| 
--1------0------3------0------0----0----|--4------4------5--------------------| 
----------------1-----------------------|-------------------------------------| 
 
 
                                                                              
-----------------------------------------|----------------------------------| 
-----------------------------------------|----------------------------------| 
--3------2-------------------------------|----------------------------------| 
--3------2------3------2----2--2----2----|--5-------5-------5-------5-------| 
--1------0------3------2----2--2----2----|--5-5-5-5-5-5-5-5-5-5-5-5-5-5-5-5-| 
----------------1------0----0--0----0----|----------------------------------| 
 
 
                                                                       
----------------------------------|----------------------------------| 
----------------------------------|----------------------------------| 
----------------------------------|----------------------------------| 
--5-------5-------5-------5-------|--5-------5-------5-------5-------| 
--5-5-5-5-5-5-5-5-5-5-5-5-5-5-5-5-|--5-5-5-5-5-5-5-5-5-5-5-5-5-5-5-5-| 
----------------------------------|----------------------------------| 
 
 
                                                        
-------------------|----------------------------------| 
-------------------|----------------------------------| 
-------------------|----------------------------------| 
--2----------------|--5-------5-------5-------5-------| 
--0----------------|--5-5-5-5-5-5-5-5-5-5-5-5-5-5-5-5-| 
-------------------|----------------------------------| 
 
 
                                                                       
----------------------------------|----------------------------------| 
----------------------------------|----------------------------------| 
----------------------------------|----------------------------------| 
--5-------5-------5-------5-------|--5-------5-------5-------5-------| 
--5-5-5-5-5-5-5-5-5-5-5-5-5-5-5-5-|--5-5-5-5-5-5-5-5-5-5-5-5-5-5-5-5-| 
----------------------------------|----------------------------------| 
 
 
                                                      
-------------------|--------------------------------| 
-------------------|--------------------------------| 
-------------------|--------------------------------| 
--2----------------|----------5--------------5------| 
--0----------------|----------5--------------5------| 
-------------------|--3-3-3-3-3--3-3-3-3-3-3-3--3-3-| 
 
 
                                                                   
--------------------------------|--------------------------------| 
--------------------------------|--------------------------------| 
--------------------------------|----------5--------------5------| 
----------5--------------5------|----------5--------------5------| 
----------5--------------5------|--3-3-3-3-3--3-3-3-3-3-3-3--3-3-| 
--3-3-3-3-3--3-3-3-3-3-3-3--3-3-|--------------------------------| 
 
 
                                                                   
--------------------------------|--------------------------------| 
--------------------------------|--------------------------------| 
----------5--------------5------|--------------------------------| 
----------5--------------5------|----------5--------------5------| 
--3-3-3-3-3--3-3-3-3-3-3-3--3-3-|----------5--------------5------| 
--------------------------------|--3-3-3-3-3--3-3-3-3-3-3-3--3-3-| 
 
 
                                                                   
--------------------------------|--------------------------------| 
--------------------------------|--------------------------------| 
--------------------------------|----------5--------------5------| 
----------5--------------5------|----------5--------------5------| 
----------5--------------5------|--3-3-3-3-3--3-3-3-3-3-3-3--3-3-| 
--3-3-3-3-3--3-3-3-3-3-3-3--3-3-|--------------------------------| 
 
 
                                                                         
--------------------------------|-------------------|------------------| 
--------------------------------|-------------------|------------------| 
----------5--------------5------|-------------------|------------------| 
----------5--------------5------|--2----------------|------------------| 
--3-3-3-3-3--3-3-3-3-3-3-3--3-3-|--0----------------|------------------| 
--------------------------------|-------------------|------------------| 
 
 
                                                                             
-------------------------------------|-------------------------------------| 
-------------------------------------|-------------------------------------| 
--7------7------7--------------------|--7------7------7--------------------| 
--7------7------7--------------------|--7------7------7--------------------| 
--5------5------5--------------------|--5------5------5--------------------| 
-------------------------------------|-------------------------------------| 
 
 
                                                                             
-------------------------------------|-------------------------------------| 
-------------------------------------|-------------------------------------| 
--7------7------7--------------------|--7------7------7--------------------| 
--7------7------7--------------------|--7------7------7--------------------| 
--5------5------5--------------------|--5------5------5--------------------| 
-------------------------------------|-------------------------------------| 
 
 
                                                                                 
--------------------------|--------------------------|-------------------------| 
--------------10----------|--------------10----10----|-------------------------| 
--------------9-----------|--------------9-----9-----|--------------9----------| 
--------------7-----------|--------------7-----7-----|--------------9----------| 
--0--0--0--0--0-------0-0-|--0--0--0--0--0-----0-----|--------------7----------| 
--------------------------|--------------------------|--0--0--0--0--0------0-0-| 
 
 
                                                                                
------------------------|--------------------------|--------------------------| 
------------------------|--------------10----------|--------------10----10----| 
--------------9----9----|--------------9-----------|--------------9-----9-----| 
--------------9----9----|--------------7-----------|--------------7-----7-----| 
--------------7----7----|--0--0--0--0--0-------0-0-|--0--0--0--0--0-----0-----| 
--0--0--0--0--0----0----|--------------------------|--------------------------| 
 
 
                                                      Solo                        
-------------------------|------------------------|-------------------------| 
-------------------------|------------------------|-------------------------| 
--------------9----------|--------------9----9----|-------------------------| 
--------------9----------|--------------9----9----|--------------6-----7~---| 
--------------7----------|--------------7----7----|--5--7--8--7-----7-------| 
--0--0--0--0--0------0-0-|--0--0--0--0--0----0----|-------------------------| 
 
 
                                                        
---------------14-15-17-15-14-15-17-18-17-15----------| 
------14-15-17-------------------------------18-17-15/| 
------------------------------------------------------| 
------------------------------------------------------| 
------------------------------------------------------| 
------------------------------------------------------| 
 
 
                                                                      
-----------14-15-17-15-14-15-17-18-17-15----------------------------| 
--14-15-17-------------------------------18-17-15-14-15-17-15-14----| 
-----------------------------------------------------------------15-| 
--------------------------------------------------------------------| 
--------------------------------------------------------------------| 
--------------------------------------------------------------------| 
 
 
                                                                            
-----------------------------------------------------|--------------------| 
-----------------------------------------------------|--------------------| 
--14-12-12-14-15-14-12-------------------------------|--------------------| 
-----------------------15-14-12-12-12--12-12-12--12--|--11~---------------| 
-----------------------------------------------------|--------------------| 
-----------------------------------------------------|--------------------| 
 
 
                                          
---------------------|------------------| 
--3------5------6----|------------------| 
--5b-----7b-----8b---|------------------| 
---------------------|------------------| 
---------------------|------------------| 
---------------------|------------------| 
 
 
                                           
--------------------------------------10h| 
-----------------------------------12----| 
--------------------------------12-------| 
--5-----------5--------------12----------| 
--5-----------5----10--14h10-------------| 
--3-3-3-3-3-3-3--------------------------| 
 
 
                                            
--15-10-----------------------------------| 
--------12--------------------------------| 
-----------12-----------------------------| 
--------------12-----------7-----------7--| 
-----------------14~10-----7-----------7--| 
---------------------------5-5-5-5-5-5-5--| 
 
 
                                                                                 
-----------------------12-14-17-19t19t17-15-12-15-17-19t19t17-15-12------------- 
--------------------14----------------------------------------------14---------- 
-----------------14----------------------------------------------------14------- 
--------------14----------------------------------------------------------14---- 
----12--16-12----------------------------------------------------------------16- 
-------------------------------------------------------------------------------- 
 
 
                                        
------9-9-9-9-10-10-10-10-12-12-12-12-| 
------9-9-9-9-10-10-10-10-12-12-12-12-| 
--------------------------------------| 
--------------------------------------| 
--------------------------------------| 
--------------------------------------| 
 
 
                                                  Frases                               
--12-13-13-13-12-12-12-12-10-10-10-10-9----|----|--5--5-5-5--3--5--6--5--3h5h3-| 
--13-13-13-13-12-12-12-12-10-10-10-10-9----|----|------------------------------| 
-------------------------------------------|----|------------------------------| 
-------------------------------------------|----|------------------------------| 
-------------------------------------------|----|------------------------------| 
-------------------------------------------|----|------------------------------| 
 
 
                                                              
-----3--5--5-5-5--3--5--6--|--5--3-5-3----3-----------------| 
--6------------------------|-----------6-----3--2-3-2----2--| 
---------------------------|--------------------------3-----| 
---------------------------|--------------------------------| 
---------------------------|--------------------------------| 
---------------------------|--------------------------------| 
 
 
                                                                              
-----------------------------|---------------|--5--5-5-5--3--5--6--5--3h5h3-| 
--3--2-3-2-------------------|---------------|------------------------------| 
-----------3--2--2/-3--3/-6--|--6~-----------|------------------------------| 
-----------------------------|---------------|------------------------------| 
-----------------------------|---------------|------------------------------| 
-----------------------------|---------------|------------------------------| 
 
 
                                                              
-----3--5--5-5-5--3--5--6--|--5--3-5-3----3-----------------| 
--6------------------------|-----------6-----3--2-3-2----2--| 
---------------------------|--------------------------3-----| 
---------------------------|--------------------------------| 
---------------------------|--------------------------------| 
---------------------------|--------------------------------| 
 
 
                                                                              
-----------------------------|-------------------|--------------------------| 
--3--2-3-2-------------------|-------------------|--------------------------| 
-----------------------------|-------------------|--------2--3--2-----------| 
-----------3--2--2/-3--3/-6--|--6~---------------|--2--3-----------3--2--3--| 
-----------------------------|-------------------|--------------------------| 
-----------------------------|-------------------|--------------------------| 
 
 
                                                                              
-----------------------|-----------------------|-----------------------|----| 
-----------------------|-----------------------|-----------------------|----| 
--2--3--2--------------|--2--3--2-----------2--|--2/-3--3/-6--6--------|----| 
-----------------2--3--|-----------3--------2--|-----------------------|----| 
-----------------------|-----------------------|-----------------------|----| 
-----------------------|-----------------------|-----------------------|----| 
 
 
                                                                            
--------------------------|-----------------------|-----------------------| 
--------------------------|-----------------------|-----------------------| 
--------2--3--2-----------|--2--3--2--------------|--2--3--2-----------2--| 
--2--3-----------3--2--3--|-----------------2--3--|-----------3--------2--| 
--------------------------|-----------------------|-----------------------| 
--------------------------|-----------------------|-----------------------| 
 
 
                                                         
-----------------------|----|--------------------------| 
-----------------------|----|--------------------------| 
-----------------------|----|--------------------------| 
--2/-3--3/-6--6~-------|----|--------2--3--------2--3--| 
-----------------------|----|--2--3--------2--3--------| 
-----------------------|----|--------------------------| 
 
 
                                                       
--------------------------|--------------------------| 
--------------------------|--------------------------| 
--------------------------|--------------------------| 
--------2--3--------2--3--|--------2--3--------2--3--| 
--2--3--------2--3--------|--2--3--------2--3--------| 
--------------------------|--------------------------| 
 
 
                                                                      
--------------------------|-----------------------------------------| 
--------------------------|-----------------------------------------| 
--------------------------|--3------2-------------------------------| 
--------2--3--------2--3--|--3------2------3------2----2--2----2----| 
--2--3--------2--3--------|--1------0------3------2----2--2----2----| 
--------------------------|----------------1------0----0--0----0----| 
 
 
                                                                       
----------------------------------|----------------------------------| 
----------------------------------|----------------------------------| 
----------------------------------|----------------------------------| 
--5-------5-------5-------5-------|--5-------5-------5-------5-------| 
--5-5-5-5-5-5-5-5-5-5-5-5-5-5-5-5-|--5-5-5-5-5-5-5-5-5-5-5-5-5-5-5-5-| 
----------------------------------|----------------------------------| 
 
 
                                                        
----------------------------------|-------------------| 
----------------------------------|-------------------| 
----------------------------------|-------------------| 
--5-------5-------5-------5-------|--2----------------| 
--5-5-5-5-5-5-5-5-5-5-5-5-5-5-5-5-|--0----------------| 
----------------------------------|-------------------| 
 
 
                                                                       
----------------------------------|----------------------------------| 
----------------------------------|----------------------------------| 
----------------------------------|----------------------------------| 
--5-------5-------5-------5-------|--5-------5-------5-------5-------| 
--5-5-5-5-5-5-5-5-5-5-5-5-5-5-5-5-|--5-5-5-5-5-5-5-5-5-5-5-5-5-5-5-5-| 
----------------------------------|----------------------------------| 
 
 
                                                        
----------------------------------|-------------------| 
----------------------------------|-------------------| 
----------------------------------|-------------------| 
--5-------5-------5-------5-------|--2----------------| 
--5-5-5-5-5-5-5-5-5-5-5-5-5-5-5-5-|--0----------------| 
----------------------------------|-------------------| 
 
 
                                                                   
--------------------------------|--------------------------------| 
--------------------------------|--------------------------------| 
--------------------------------|--------------------------------| 
----------5--------------5------|----------5--------------5------| 
----------5--------------5------|----------5--------------5------| 
--3-3-3-3-3--3-3-3-3-3-3-3--3-3-|--3-3-3-3-3--3-3-3-3-3-3-3--3-3-| 
 
 
                                                                   
--------------------------------|--------------------------------| 
--------------------------------|--------------------------------| 
----------5--------------5------|----------5--------------5------| 
----------5--------------5------|----------5--------------5------| 
--3-3-3-3-3--3-3-3-3-3-3-3--3-3-|--3-3-3-3-3--3-3-3-3-3-3-3--3-3-| 
--------------------------------|--------------------------------| 
 
 
                                                                   
--------------------------------|--------------------------------| 
--------------------------------|--------------------------------| 
--------------------------------|--------------------------------| 
----------5--------------5------|----------5--------------5------| 
----------5--------------5------|----------5--------------5------| 
--3-3-3-3-3--3-3-3-3-3-3-3--3-3-|--3-3-3-3-3--3-3-3-3-3-3-3--3-3-| 
 
 
                                                                   
--------------------------------|--------------------------------| 
--------------------------------|--------------------------------| 
----------5--------------5------|----------5--------------5------| 
----------5--------------5------|----------5--------------5------| 
--3-3-3-3-3--3-3-3-3-3-3-3--3-3-|--3-3-3-3-3--3-3-3-3-3-3-3--3-3-| 
--------------------------------|--------------------------------| 
 
 
                                                               
-------------------|------------------|----------------------| 
-------------------|------------------|----------------------| 
-------------------|------------------|--7--------------7----| 
--2----------------|------------------|--7------7----7--7----| 
--0----------------|------------------|--5------4----4--5----| 
-------------------|------------------|----------------------| 
 
 
                                                                            
-------------------------|----------------------|-------------------------| 
-------------------------|----------------------|-------------------------| 
--7----------------------|--7--------------7----|--7----------------------| 
--7----------------------|--7------7----7--7----|--7----------------------| 
--5----0--4--5--7--5--4--|--5------4----4--5----|--5----0--4--5--7--5--4--| 
-------------------------|----------------------|-------------------------| 
 
 
                                          
-------------------|-------------------|| 
-------------------|-------------------|| 
--7----------------|--7----------------|| 
--7----------------|--7----------------|| 
--5----------------|--5----------------|| 
-------------------|-------------------|| 
 
_______________________________________________________ 
Contribuição: Guilherme F. Silva([email protected]) 

	  

Search Paypal
auto scroll beats size up size down change color hide chords drawings
tab show chords e-chords YouTube Clip e-chords hide all tabs e-chords go to top tab