Eterna

home > Eterna

Corruption-base Tab

Eterna

Difficulty: nolevelnolevel

by ToimVida

tuner correct add songbook print version text version save to e-mail
chordsukulelecavacokeyboardtabbassdrumsharmonicsflute Guitar Pro
chords

Corruption-base

  		Base 
                                                       
D#||--------------------|----------------------------| 
A#||--------------------|----------------------------| 
F#||--------------------|--3--------------6---5---3--| 
C#||----------------3-5-|--3--3-3-3-3-3-3-3---3---3--| 
G#||----------------3-5-|----------------------------| 
D#||--------------------|----------------------------| 
 
 
                                                                
---------------------------------|----------------------------| 
---------------------------------|----------------------------| 
--5------------------------------|--3--------------6---5---3--| 
--3--3-3-3-3-3-3-3-3-3-3-3-3-3-5-|--3--3-3-3-3-3-3-3---3---3--| 
-----------------------------3-5-|----------------------------| 
---------------------------------|----------------------------| 
 
 
                                                                
---------------------------------|----------------------------| 
---------------------------------|----------------------------| 
--5------------------------------|--3--------------6---3---6--| 
--2--2-2-2-2-2-2-2-2-2-2-2-2-3-5-|--3--3-3-3-3-3-3-3---3---3--| 
-----------------------------3-5-|----------------------------| 
---------------------------------|----------------------------| 
 
 
                                                                
---------------------------------|----------------------------| 
---------------------------------|----------------------------| 
--5------------------------------|--3--------------6---5---3--| 
--4--4-4-4-4-4-4-4-4-4-4-4-4-3-5-|--3--3-3-3-3-3-3-3---3---3--| 
-----------------------------3-5-|----------------------------| 
---------------------------------|----------------------------| 
 
 
                                                                               
---------------------------------|---------------------|---------------------| 
---------------------------------|---------------------|---------------------| 
--5------------------------------|--5---5---5----------|--7---7---7----------| 
--2--2-2-2-2-2-2-2-2-2-2-2-2-2-2-|--2---2---3----------|--4---4---5----------| 
---------------------------------|---------------------|---------------------| 
---------------------------------|---------------------|---------------------| 
 
 
                                                                  
---------------------|-----------------------|------------------| 
---------------------|-----------------------|------------------| 
--9---9---9----------|--10---10---9----------|------------------| 
--6---6---7----------|--7----7----7----------|------------------| 
---------------------|-----------------------|------------------| 
---------------------|-----------------------|------------------| 
 
 
                                                     
|-------------------------|------------------------| 
|-------------------------|------------------------| 
|*------------------------|------------------------| 
|*----------0----------0--|----------0-------------| 
|-------2----------2------|------2------7---5---4--| 
|---0----------2----------|--3----------5---3---2--| 
 
 
                                                           
----------------------------|----------------------------| 
----------------------------|----------------------------| 
-----------------------9----|-----------------------7----| 
-----------------------9----|-----------------------7----| 
----------------------------|----------------------------| 
--0--0-0-0-0--0-0--0-0------|--0--0-0-0-0--0-0--0-0------| 
 
 
                                                                                
------------------------|------------------------|----------------------------| 
------------------------|------------------------|----------------------------| 
------------------------|------------------------|-----------------------9----| 
----------0----------0--|----------0-------------|-----------------------9----| 
------2----------2------|------2------7---5---4--|----------------------------| 
--0----------2----------|--3----------5---3---2--|--0--0-0-0-0--0-0--0-0------| 
 
 
                                                                                
----------------------------|------------------------|------------------------| 
----------------------------|------------------------|------------------------| 
-----------------------7----|------------------------|------------------------| 
-----------------------7----|----------0----------0--|----------0-------------| 
----------------------------|------2----------2------|------2------7---5---4--| 
--0--0-0-0-0--0-0--0-0------|--0----------2----------|--3----------5---3---2--| 
 
 
                                                           
----------------------------|----------------------------| 
----------------------------|----------------------------| 
-----------------------9----|-----------------------7----| 
-----------------------9----|-----------------------7----| 
----------------------------|----------------------------| 
--0--0-0-0-0--0-0--0-0------|--0--0-0-0-0--0-0--0-0------| 
 
 
                                                                                
------------------------|------------------------|----------------------------| 
------------------------|------------------------|----------------------------| 
------------------------|------------------------|-----------------------9----| 
----------0----------0--|----------0-------------|-----------------------9----| 
------2----------2------|------2------7---5---4--|----------------------------| 
--0----------2----------|--3----------5---3---2--|--0--0-0-0-0--0-0--0-0------| 
 
 
                                                                       
----------------------------|-------------------|--------------------| 
----------------------------|-------------------|--------------------| 
-----------------------7----|--5----------------|--9--------7--------| 
-----------------------7----|--5----------------|--9--------7--------| 
----------------------------|--3----------------|--7--------5--------| 
--0--0-0-0-0--0-0--0-0------|-------------------|--------------------| 
 
 
                                                              
-------------------|--3--------2--------|-------------------| 
-------------------|--3--------3--------|-------------------| 
--5----------------|--0--------2--------|--5----------------| 
--5----------------|--0--------0--------|--5----------------| 
--3----------------|--2-----------------|--3----------------| 
-------------------|--3-----------------|-------------------| 
 
 
                                                                      
--------------------|--------------------|--------------------------| 
--------------------|--------------------|--------------------------| 
--9--------7--------|-----------5--------|--7--7--7--7--7--7--7--7--| 
--9--------7--------|--3--------5--------|--7--7--7--7--7--7--7--7--| 
--7--------5--------|--3--------3--------|--5--5--5--5--5--5--5--5--| 
--------------------|--1-----------------|--------------------------| 
 
 
                                                                          
--------------------------|----------------------|----------------------| 
--------------------------|----------------------|----x--8----8--7------| 
--7--7--7--7--7--7--7--7--|--9----------------7--|----x--7----7--7------| 
--7--7--7--7--7--7--7--7--|--9----------------7--|----x--7----7--7------| 
--5--5--5--5--5--5--5--5--|--7------------7-9----|----------------------| 
--------------------------|--0-------------------|----------------------| 
 
 
                                                                   
-----------------------|--------------------|--------------------| 
-----------------------|--------------------|--------------------| 
-------------4------7--|----5--5------------|--9--------------7--| 
--5----------4------7--|----5--5------------|--9--------------7--| 
--5----------2------5--|----3--3------------|--7--------------5--| 
--3----0--3------------|--------------------|--------------------| 
 
 
                                                                
------------------|----------------------|--------------------| 
------------------|----------------------|--------------------| 
------------------|-------------------9--|----7--7------------| 
------------------|--7------7--7------9--|----7--7------------| 
------------------|--7------7--7------7--|----5--5------------| 
------------------|--5------5--5---------|--------------------| 
 
 
                                                                       
----------------------|----------------------|-----------------------| 
----------------------|----x--8----8--7------|-----------------------| 
--9----------------7--|----x--7----7--7------|-------------4------7--| 
--9----------------7--|----x--7----7--7------|--5----------4------7--| 
--7------------7-9----|----------------------|--5----------2------5--| 
--0-------------------|----------------------|--3----0--3------------| 
 
 
                                                              
--------------------|--------------------|------------------| 
--------------------|--------------------|------------------| 
----5--5------------|--9--------------7--|------------------| 
----5--5------------|--9--------------7--|------------------| 
----3--3------------|--7--------------5--|------------------| 
--------------------|--------------------|------------------| 
 
 
                                                                     
----------------------|--------------------|-----------------------| 
----------------------|--------------------|-----------------------| 
-------------------9--|----7--7------------|-----------------x-x---| 
--7------7--7------9--|----7--7------------|----------2------x-x---| 
--7------7--7------7--|----5--5------------|--2-------0------x-x---| 
--5------5--5---------|--------------------|--0---3b---------------| 
 
 
                                                                       
-----------------------|------------------------|--------------------| 
-----------------------|------------------------|--------------------| 
-----------------x-x---|------------------------|--7-----------------| 
--2--------------x-x---|----------2-------------|--7-----------------| 
--0-------2------x-x---|--2-------0-------------|--5--------6~-------| 
------3b--0------------|--0---3b-------3--0--3--|--------------------| 
 
 
                                                                          
-----------------------|-----------------------|------------------------| 
-----------------------|-----------------------|------------------------| 
-----------------x-x---|-----------------x-x---|------------------------| 
----------2------x-x---|--2--------------x-x---|----------2-------------| 
--2-------0------x-x---|--0-------2------x-x---|--2-------0-------------| 
--0---3b---------------|------3b--0------------|--0---3b-------3--0--3--| 
 
 
                                                       5x 
---------------------||--------------------------------|| 
---------------------||--------------------------------|| 
--7-----------------*||*--x-x-x-x-x-x-x-x-x-x-x-x-----*|| 
--7-----------------*||*--x-x-x-x-x-x-x-x-x-x-x-x-----*|| 
--5--------6~--------||---x-x-x-x-x-x-x-x-x-x-x-x------|| 
---------------------||---x-x-x-x-x-x-x-x-x-x-x-x------|| 
 
 
                                                          
---------------------------|---------------------------|| 
---------------------------|---------------------------|| 
*--------------------------|--------------------------*|| 
*-----4--5--7-----4--5--7--|-----4--5--7--5--4--------*|| 
---7-----------7-----------|--7-----------------7--5---|| 
---------------------------|---------------------------|| 
 
 
                                                             
-----------------------------|----------------------------|| 
------7--8--10-----7--8--10--|-----7--8--10--8--7---------|| 
*--9------------9------------|--9------------------9--7--*|| 
*----------------------------|---------------------------*|| 
-----------------------------|----------------------------|| 
-----------------------------|----------------------------|| 
 
 
                                                                          
-----------------------------------|-----------------------------------|| 
-------12--13--15------12--13--15--|------12--13--15--13--12-----------|| 
*--14--------------14--------------|--14----------------------14--12--*|| 
*----------------------------------|----------------------------------*|| 
-----------------------------------|-----------------------------------|| 
-----------------------------------|-----------------------------------|| 
 
 
                                                                          
--------------------||-------------------------|------------------------| 
--------------------||-------------------------|------------------------| 
--------------------||*------------------------|------------------------| 
--7--------5--------||*------------------------|------------------------| 
--7--------5--------||--------7-----5-----6b---|-------7-----5/-4-------| 
--5--------3--------||---0-------0-----0-------|--0-------0--------5~---| 
 
 
                                                                        
------------------------|---------------------------------||----------| 
------------------------|---------------------------------||----------| 
------------------------|--4/-5/-4/-5-----------7--------*||----------| 
------------------------|--4/-5/-4/-5--5--------7--------*||----------| 
-------7-----5-----6b---|--------------5--------5---------||----------| 
--0-------0-----0-------|--------------3------------------||----------| 
 
 
                                                                              
----------|----------|----------|----------|----------|----------|----------| 
----------|----------|----------|----------|----------|----------|----------| 
----------|----------|----------|----------|----------|----------|----------| 
----------|----------|----------|----------|----------|----------|----------| 
----------|----------|----------|----------|----------|----------|----------| 
----------|----------|----------|----------|----------|----------|----------| 
 
 
                                                                              
----------|----------|----------|----------|----------|----------|----------| 
----------|----------|----------|----------|----------|----------|----------| 
----------|----------|----------|----------|----------|----------|----------| 
----------|----------|----------|----------|----------|----------|----------| 
----------|----------|----------|----------|----------|----------|----------| 
----------|----------|----------|----------|----------|----------|----------| 
 
 
                                                                
----------|----------|-------------------|--------------------| 
----------|----------|-------------------|--------------------| 
----------|----------|--5----------------|--9--------7--------| 
----------|----------|--5----------------|--9--------7--------| 
----------|----------|--3----------------|--7--------5--------| 
----------|----------|-------------------|--------------------| 
 
 
                                                              
-------------------|--3--------2--------|-------------------| 
-------------------|--3--------3--------|-------------------| 
--5----------------|--0--------2--------|--5----------------| 
--5----------------|--0--------0--------|--5----------------| 
--3----------------|--2-----------------|--3----------------| 
-------------------|--3-----------------|-------------------| 
 
 
                                                                      
--------------------|--------------------|--------------------------| 
--------------------|--------------------|--------------------------| 
--9--------7--------|-----------5--------|--7--7--7--7--7--7--7--7--| 
--9--------7--------|--3--------5--------|--7--7--7--7--7--7--7--7--| 
--7--------5--------|--3--------3--------|--5--5--5--5--5--5--5--5--| 
--------------------|--1-----------------|--------------------------| 
 
 
                                                                          
--------------------------|----------------------|----------------------| 
--------------------------|----------------------|----x--8----8--7------| 
--7--7--7--7--7--7--7--7--|--9----------------7--|----x--7----7--7------| 
--7--7--7--7--7--7--7--7--|--9----------------7--|----x--7----7--7------| 
--5--5--5--5--5--5--5--5--|--7------------7-9----|----------------------| 
--------------------------|--0-------------------|----------------------| 
 
 
                                                                   
-----------------------|--------------------|--------------------| 
-----------------------|--------------------|--------------------| 
-------------4------7--|----5--5------------|--9--------------7--| 
--5----------4------7--|----5--5------------|--9--------------7--| 
--5----------2------5--|----3--3------------|--7--------------5--| 
--3----0--3------------|--------------------|--------------------| 
 
 
                                                                
------------------|----------------------|--------------------| 
------------------|----------------------|--------------------| 
------------------|-------------------9--|----7--7------------| 
------------------|--7------7--7------9--|----7--7------------| 
------------------|--7------7--7------7--|----5--5------------| 
------------------|--5------5--5---------|--------------------| 
 
 
                                                                       
----------------------|----------------------|-----------------------| 
----------------------|----x--8----8--7------|-----------------------| 
--9----------------7--|----x--7----7--7------|-------------4------7--| 
--9----------------7--|----x--7----7--7------|--5----------4------7--| 
--7------------7-9----|----------------------|--5----------2------5--| 
--0-------------------|----------------------|--3----0--3------------| 
 
 
                                                              
--------------------|--------------------|------------------| 
--------------------|--------------------|------------------| 
----5--5------------|--9--------------7--|------------------| 
----5--5------------|--9--------------7--|------------------| 
----3--3------------|--7--------------5--|------------------| 
--------------------|--------------------|------------------| 
 
 
                                                                     
----------------------|--------------------|-----------------------| 
----------------------|--------------------|-----------------------| 
-------------------9--|----7--7------------|-----------------x-x---| 
--7------7--7------9--|----7--7------------|----------2------x-x---| 
--7------7--7------7--|----5--5------------|--2-------0------x-x---| 
--5------5--5---------|--------------------|--0---3b---------------| 
 
 
                                                                       
-----------------------|------------------------|--------------------| 
-----------------------|------------------------|--------------------| 
-----------------x-x---|------------------------|--7-----------------| 
--2--------------x-x---|----------2-------------|--7-----------------| 
--0-------2------x-x---|--2-------0-------------|--5--------6~-------| 
------3b--0------------|--0---3b-------3--0--3--|--------------------| 
 
 
                                                                          
-----------------------|-----------------------|------------------------| 
-----------------------|-----------------------|------------------------| 
-----------------x-x---|-----------------x-x---|------------------------| 
----------2------x-x---|--2--------------x-x---|----------2-------------| 
--2-------0------x-x---|--0-------2------x-x---|--2-------0-------------| 
--0---3b---------------|------3b--0------------|--0---3b-------3--0--3--| 
 
 
                                                                      
--------------------|-----------------------|-----------------------| 
--------------------|-----------------------|-----------------------| 
--7-----------------|-----------------x-x---|-----------------x-x---| 
--7-----------------|----------2------x-x---|--2--------------x-x---| 
--5--------6~-------|--2-------0------x-x---|--0-------2------x-x---| 
--------------------|--0---3b---------------|------3b--0------------| 
 
 
                                                                       
------------------------|--------------------|-----------------------| 
------------------------|--------------------|-----------------------| 
------------------------|--7-----------------|-----------------x-x---| 
----------2-------------|--7-----------------|----------2------x-x---| 
--2-------0-------------|--5--------6~-------|--2-------0------x-x---| 
--0---3b-------3--0--3--|--------------------|--0---3b---------------| 
 
 
                                                                       
-----------------------|------------------------|--------------------| 
-----------------------|------------------------|--------------------| 
-----------------x-x---|------------------------|--7--------8--------| 
--2--------------x-x---|----------2-------------|--7--------8--------| 
--0-------2------x-x---|--2-------0-------------|--5--------6~-------| 
------3b--0------------|--0---3b-------3--0--3--|--------------------| 
 
 
                                                                      
-----------------------------|--------------------------------------| 
-----------------------------|--------------------------------------| 
--9--------10----------------|----------9----9--9--9--9----9--9--9--| 
--9--------10----------------|----------9----9--9--9--9----9--9--9--| 
--7--------8-----------------|----------7----7--7--7--7----7--7--7--| 
-----------------------------|--------------------------------------| 
 
 
                                      
--------------------|--------------|| 
--------------------|--------------|| 
--9----9~-----------|--------------|| 
--9----9------------|--------------|| 
--7----7------------|--------------|| 
--------------------|--------------|| 
	  

Search Paypal
auto scroll beats size up size down change color hide chords drawings
tab show chords e-chords YouTube Clip e-chords hide all tabs e-chords go to top tab