Eric Clapton

home > Eric Clapton

Nobody Knows You When You're Down And Out (acoustic) Tab

Eric Clapton

Difficulty: EasyEasy

by marcnagel

tuner correct add songbook print version text version save to e-mail
chordsukulelecavacokeyboardtabbassdrumsharmonicsflute Guitar Pro
chords

Nobody Knows You When You're Down And Out (acoustic)

  		Intro: 

  C      E7             A7          Dm       A7         Dm           F 
---------------0---------3-3------3--1-1-------------3-1-1---------------- 
---1-------------3-2-----2-2------2--3-3-----3-2---2---3-3------------1--- 
---0--0--0h1-------0-----0-0------0--2-2---2---0-0-----2-2------------2--- 
---2--2------------------------------0---0-------------0----0-1-2-3-3---3- 
-3-------------------0-0-----0--0--------------0-------------------------- 
-------------0------------------------------------------------------------ 

  F#dim7   C/B      A7     D7          G7 
--------------------3-3----2---2---2-2-1-1-1-1-- 
1---1---1-----------2-2----1---1---1-1-0-0-0-0-- 
2---2---2-0---------0-0----2---2---2-2-0-0-0-0-- 
--4---4---2--------------0---0---0-------------- 
----------3-2-1-0------------------------------- 
---------------------------------------3-------- 

C              E7               A7 
Once I lived a l................aire 
Dm           A7     Dm 
Spend all my money, d.... 
F           F#dim7            C/G           A7 
Took all my friends out for a m... 
D7                        G7 
We bought bootleg liquor, c... 

Solo: 
------------------------------------------------------------------------- 
-----------------8-10-8-10--8/10-8----------------/6-5-6-5--------------- 
-----------5-7/9-------------------9-7-5---/6--------------7p5-7--------- 
-------5-7-------------------------------7----7-------------------/5---5- 
-3-5/7---------------------------------------------------------------8--- 
------------------------------------------------------------------------- 

--------------------------------------------------------5---------------- 
-------------------------------------------/5-5-5-4-3-2-2-------7---7-8-7 
----------------5-7--5-7-8--5-7-5---5-8\---/6-6-6-5-4-0------------------ 
------------5/7-------------------7---7\--------------------5/7---7-----7 
8-5-3-4-5---------------------------------------------0------------------ 
------------------------------------------------------------------------- 

-----------------7-8-9-10-10/11-10v-- 
-8-10----10-------------------------- 
-------------5/7--------------------- 
-9-10-10----------------------------- 
------------------------------------- 
------------------------------------- 

Solo final: 
                         Db  C 
-------------------------9---8--- 
--6b-6-------------------9---8--- 
--------8-5--------------10--9--- 
------------8-5----------11--10-- 
----------------9-8-6/7---------- 
--------------------------------- 
	  

Full key step upFull key step up
Half key step upHalf key step up
Half key step downHalf key step down
Full key step downFull key step down
Search Paypal
auto scroll beats size up size down change color hide chords drawings
tab show chords e-chords YouTube Clip e-chords hide all tabs e-chords go to top tab